Oops, an error
Loading. Please wait.

The Braying Mule Tab

version 1
version 1

Whole song

4,054 views 24 this week
1 commentread comment
1 2 3 4 5
worth learning
x 5
add to favorites
launch autoscroll
font size
0
reset
how to read this tab
guitar tuner
Autoscroll
slow
fast
+/-
esc
set tempo
stop
Help us to improve Ultimate-Guitar.com Take our survey!
×
Author
Difficulty
novice
The braying mule from the movie Django unchained.



e|-12-12-12-12/13/12-12-12-12/15h14-12--------------|
B|--------------------------------------------------|
G|--------------------------------------------------|
D|--------------------------------------------------|
A|--------------------------------------------------|
E|--------------------------------------------------|

Repeat until 0:45 :
e|-8-8-8-8-8-8-8-8-8-10-8-7-5-7-8-8-----------------|
B|--------------------------------------------------|
G|--------------------------------------------------|
D|--------------------------------------------------|
A|--------------------------------------------------|
E|--------------------------------------------------|
Suggest correction
comments
print report bad tab
1 comment total.
0 reply
lillevigge 31 wrote on February 5 2013, 12:24 pm

e|--------------------------------------------------|
B|--------------------------------------------------|
G|--------------------------------------------------|
D|-12-12-12-12/13/12-12-12-12/15h14-12--------------|
A|--------------------------------------------------|
E|--------------------------------------------------|

Repeat until 0:45 :
e|--------------------------------------------------|
B|--------------------------------------------------|
G|--------------------------------------------------|
D|--------------------------------------------------|
A|-8-8-8-8-8-8-8-8-8-10-8-7-5-7-8-8-----------------|
E|--------------------------------------------------|

Sorry , this is the way.

guest
You may want to rate the tab now too:
select rating
Please do not post tabs as comments. Select "correction" instead!