Oops, an error
Loading. Please wait.

The Good The Bad And The Ugly Tab

version 1
version 1

Intro

Whole song

Interactive

36,660 views 51 this week
no commentswrite comment
1 2 3 4 5
excellent!
x 17
add to favorites
launch autoscroll
font size
0
reset
how to read this tab
guitar tuner
Autoscroll
slow
fast
+/-
esc
set tempo
stop
Help us to improve Ultimate-Guitar.com Take our survey!
×
Author
Difficulty
novice
e)------------------------------------------|
b)--------15----15--------------------------|
g)-----14----14-----14----------12^---------|
d)------------------------15^---------12^---|
a)------------------------------------------|
e)------------------------------------------|


e)------------------------------------------|
b)--------15----15----------------------13^-|
g)-----14----14-----14----------12^---------|
d)------------------------15----------------|
a)------------------------------------------|
e)------------------------------------------|

e)------------------------------------------|
b)--------15----15--------------------------|
g)-----14----14-----14----------------------|
d)------------------------15-14-12----------|
a)---------------------------------15-------|
e)------------------------------------------|

e)------------------------------------------|
b)--------15----15--------------------------|
g)-----14----14-----14----------12^---------|
d)---------------------------------12-12----|
a)------------------------------------------|
e)------------------------------------------|
Suggest correction
comments
print report bad tab
guest
You may want to rate the tab now too:
select rating
Wanna post a correction for this tab? Suggest correction