Oops, an error
Loading. Please wait.

The Good The Bad And The Ugly Tab

version 1
version 1

Whole song

Interactive

180,225 views 156 this week
3 commentsread comments
1 2 3 4 5
x 9
add to favorites
launch autoscroll
font size
0
reset
how to read this tab
guitar tuner
Autoscroll
slow
fast
+/-
esc
set tempo
stop
Help us to improve Ultimate-Guitar.com Take our survey!
×
Author
Difficulty
Capo
intermediate
10th fret
It's a pretty long song from the greatest western ever made.  In the movie I'm not sure
ever played straight through, but I have the version off of We All Love Ennio Morricone,
by Quincy Jones and Herbie Hancock.  I would suggest using a wah-wah pedal.

I also play it with a capo on the 10th fret, but only on the highest 4 strings (DGBE),
all of the notes will be from the top of the neck.


[Riff(?) 1]

e|-----------------------------------------------------------------------|
B|-10h15p10h15p10--------------10h15p10h15p10----------------------------|
G|---------------------------------------------------17------------------|
D|-----------------15-17-----------------------15-17---------------------|
A|-----------------------17----------------------------------------------|
E|-----------------------------------------------------------------------|

e|-----------------------------------------------------------------------|
B|-10h15p10h15p10--------------10h15p10h15p10----------------------------|
G|-----------------------------------------------------------------------|
D|-----------------15-14----------------------17-------------------------|
A|-----------------------17-15-------------------17-17-------------------|
E|-----------------------------------------------------------------------|

  X2

  
[Thing 2]

e|-----------------------------------------------------------------------|
B|-----------------------------------------------------------------------|
G|-----------------------------------------------------------12h14-------|
D|-----------------------------------------------------14----------------|
A|------12----14-----------12----14--------12----14-12----15-------------|
E|-5-10----13---------5-10----13------5-10----13-------------------------|


[Thing 3]

e|-----------------------------------------------------------------------|
B|-----------------------------------------------------------------------|
G|----------12-------------12------------12------------12----------------|
D|-15p14-12----12-15p14-12---12-15p14-12---12-15p14-12----12-15p14-12----|
A|-----------------------------------------------------------------------|
E|-----------------------------------------------------------------------|

e|-----------------------------------------------------------------------------|
B|-----------------------------------------------------------------------------|
G|-----------------------------------------------------------------------------|
D|-15-14-----12p10----12-------------------------------------------------------|
A|-------15--------14----15-12--14p12----14-12---------------------------------|
E|------------------------------------15-------13--15p13-12-15-13-10-8--8-9-10-|


[Thing 4]

e|-----------------------------------------------------------------------|
B|-----------------------------------------------------------------------|
G|-----------------------------------------------------------12h14-------|
D|-----------------------------------------------------14----------------|
A|------12----14-----------12----14--------12----14-12----15-------------|
E|-5-10----13----------10----13-------5-10----13-------------------------|


[Thing 5]

e|-----------------------------------------------------------------------|
B|-10h15p10h15p10--------------10h15p10h15p10----------------------------|
G|-----------------------------------------------------------------------|
D|-----------------17--------------------------17------------------------|
A|--------------------17-17-----------------------17-17------------------|
E|-----------------------------------------------------------------------|


It goes:
Thing 1 X2
Thing 2 X1
Thing 3 X1
Thing 1 X1
Piano Interlude
Thing 4 X1
Thing 3 X1
Thing 1 X1
Thing 5 X1
Piano Interlude
Thing 1 (this time only the first part of the riff)
Voice/Piano Interlude
Thing 1 (just the first part again)
 END!


This song and The Ecstasy of Gold (also played by Metallica) are the only two songs
in the movie, and yet the sound track is still amazing...

Anything wrong or whatev, email me at 7hePatrician@gmail.com
this tab I did all by myself!



************************************

| h  Hammer-on
| p  Pull-off

************************************
Suggest correction
comments
print report bad tab
3 comments total.
+3 reply
Magnifique 20 Feb 20, 2008 09:28 PM

Thing 2
-----------------------------------------------------------------------|
-----------------------------------------------------------------------|
-----------------------------------------------------------12h14-------|
-----------------------------------------------------14----------------|
------12----14-----------12----14--------12----14-12----15-------------|
-5-10----13---------5-10----13------5-10----13-------------------------|

This sounds a little wrong when played with the original,
For me playing this sounds best
Thing 2
-----------------------------------------------------------------------|
-----------------------------------------------------------------------|
-----------------------------------------------------------12h14-------|
-----------------------------------------------------14----------------|
------12----15-----------12----15--------12----15-12----15-------------|
-5-10----13---------5-10----13------5-10----13-------------------------|

Just a few minor changes on the --14-- on the A string! Sounds fantastic other that that minor bit, thank you!

+2 reply
MadLordWinder 67 Feb 20, 2008 10:16 PM

Oops, yeah that's right. I dunno how I got it like that...

+3 reply
urple 51 Jun 06, 2009 06:51 PM

very important in my opinion (but easy to miss): the third 10h15p10h15p10 should just be 10h15p10h15

this is essential to making the riff stay fresh, and not sound repetitive

guest
You may want to rate the tab now too:
select rating
Wanna post a correction for this tab? Suggest correction