Oops, an error
Loading. Please wait.

The Good The Bad And The Ugly tab

version 11
version 11

Whole song

9,977 views 75 this week
1 commentread comment
1 2 3 4 5
x 7
add to favorites
×
Save as Personal and add changes to this tab that will be seen only by you. Learn more ›
×
You can save this tab as Personal to edit and correct it or add notes. All changes will be seen only by you. Learn more »
launch autoscroll
font size
0
reset
how to read this tab
guitar tuner
backing track
0:00
0:00
edit
Autoscroll
slow
fast
+/-
esc
set tempo
stop
Author
Difficulty
intermediate
About this tab version
Totally diffenrent, much more of everything. Was this info helpful? Yes No
The Good The Bad And The Ugly  -  Ennio Morricone

                             ~~  Acoustic Guitar Interpretation  ~~

Tab by Avi Yaacov
Israel, September 16, 2015


There are MANY tabs for this on this site, maybe too many even...
but this one takes a whole different approach to this piece of music. 
It is for one guitar with chords + the leads 


Tabbed for a friend (the master of time).


The arrangement is based on:
https://www.youtube.com/watch?v=5UZF3bGoZpM


[Intro]

   Em                         A           Em                                  D
e|-------(12)------(12)-------3-3h5-0--|---------(12)------(12)-------3-3h5-/10--|
B|--(12)------(12)------(12)-----------|----(12)------(12)------(12)-------------|
G|-------------------------------------|-----------------------------------------|
D|-------------------------------------|-----------------------------------------|
A|-------------------------------------|-----------------------------------------|
E|--0----------------------------------|--0--------------------------------------|


   Em                                    D    Em                               Em
e|-------(12)------(12)-------3-2h3p2-p0----|-------(12)------(12)--------5\---0---|
B|--(12)------(12)------(12)-------------3--|--(12)------(12)------(12)---5\---0---|
G|------------------------------------------|----------------------------------0---|
D|------------------------------------------|----------------------------------2---|
A|------------------------------------------|----------------------------------2---|
E|------------------------------------------|----------------------------------0---|


[Middle part:]

Em                    A              Em                D
e|----0---0-----------3--3h5--0---|----0---0-----------3--3h5-/10--|
B|--0---0---0---------------------|--0---0---0---------------------|
G|--------------------------------|--------------------------------|
D|--------------------------------|--------------------0--0----0---|
A|--------------------0--0----0---|--------------------------------|
E|--0---0---0---0--0--------------|--0---0---0---0--0--------------|


   Em                 D             Em                 A
e|----0---0-----------3-0h2-0-----|----0---0-----------5\------0---|
B|--0---0---------------------3---|--0---0---0---------5\------0---|
G|--------------------------------|----------------------------0---|
D|--------------------0--0----0---|----------------------------2---|
A|--------------------------------|--------------------0-------2---|
E|--0---0---0---0--0--------------|--0---0---0---0--0----------0---|


    Em                                   A         Em                      D
e|--0--------||---0----0---0-----0-------0-----|---0----0---0-----0--------2---|
B|--0--------||---0--0---0---0---0-------2-----|---0--0---0---0---0--------3---|
G|--0--------||---0--------------0---0-0h2-----|---0--------------0---0-0--2---|
D|--2--0h2---||---2--------------2-------2-----|---2--------------2--------0---|
A|--2--------||---2--------------2-------0-----|---2--------------2------------|
E|--0--------||---0--------------0-------------|---0--------------0------------|
   X 
 as necessary

    
   Cmaj7                  Bm     Cmaj7          D    Em
e|--0-0---0---------------2----|---0-0---0------2----0---|
B|--0---0---0-------------3----|---0---0---0----3----0---|
G|--0-----------0---------4----|---0------------2----0---|
D|--2-------------4-2-0---4----|---2------------0----2---|
A|--3---------------------2----|---3-----------------2---|
E|-----------------------------|---------------------0---|


[Transition part:]

 
    Em         Bm      Em         G      Em        Bm          D       B
e|-------------2----|-------------3---|------------2-----2-----5---|---7---|
B|-------0-----3----|-------0-----3---|-------0----3-------3---7---|---7---|
G|---------0---4----|---------0---0---|---------0--4---4-------7---|---8---|
D|----2--------4----|----2--------0---|----2-------4-----------0---|---9---|
A|--2----------2----|--2----------2---|--2---------2-----------0---|---9---|
E|------------------|-------------3---|----------------------------|---7---|



[Up-tempo part:]

                A*       G    D    A    Em   D*   Em   F       B        B7
e|--0-3-2-0--0--5---||---3----2----0-------------------1---|---2--------2---|
B|--------------2---||---0----3----2--------(3)---0----1---|---4--------4---|
G|--------------2---||---0----2----2----0----2----0----2---|---4--------2---|
D|--------------2---||---0----0----2----2----4----2----3---|---4---or---4---|
A|--------------0---||-------------0----2----5----2----3---|---2--------2---|
E|------------------||------------------0---------0----1---|----------------|
   X 
 as necessary       ||   fast chord changes                | B7 sounds better
 


Next part chords (with different strumming patterns):

Em / Em / A / A
Em / Em / D / D
Cmaj7 / Cmaj7 / Bm / Bm
Cmaj7 / Cmaj7 /  (D) - Em   / Em


With the occasional hammer on Em (at D string 0h2)



************************************

| (n)  Ghost note
| h    Hammer-on
| p    Pull-off
| /    Slide up
| \    Slide down

************************************

            
            
Suggest correction
Creating personal tab
Creating personal tab
You can edit any tab online and save it as your Personal.

You can edit, replace or remove any tab part or add personal notes – all changes will be seen only by you.

Personal tabs can be accessed anytime from any device, even offline.
Learn more »
comments
print report bad tab
1 comment total.
+1 reply
sniperMdAb 55 Oct 01, 2015 10:12 AM

this is perfectly accurate! exactly like it's played in the video

guest
You may want to rate the tab now too:
select rating
Wanna post a correction for this tab? Suggest correction