Oops, an error
Loading. Please wait.

The Good The Bad And The Ugly tab

version 13
version 13

Whole song

784 views 27 this week
no commentswrite comment
1 2 3 4 5
2 more votes to show rating
add to favorites
×
Save as Personal and add changes to this tab that will be seen only by you. Learn more ›
×
You can save this tab as Personal to edit and correct it or add notes. All changes will be seen only by you. Learn more »
launch autoscroll
font size
0
reset
how to read this tab
guitar tuner
backing track
0:00
0:00
edit
Autoscroll
slow
fast
+/-
esc
set tempo
stop
Author
About this tab version
It gives information on how to get the tone and the effects used as well as the speed. Was this info helpful? Yes No
H hammer on |
P pull of   |
/ Slide     |
V vibrato   |
-------------
Effects needed: Wah, overdrive

Guitar 1
Clean guitar with Wah in toe down position

e----------------------|
B-10h15p10-10h15p10vvv-|
G----------------------|
D----------------------|
A----------------------|
E----------------------|

Guitar 2

Sweep through Wah on overdriven electric

e------------|
B------------|
G-10-12------|
D------12vvv-|
A------------|
E------------|

Guitar 1

e----------------------|
B-10h15p10-10h15p10vvv-|
G----------------------|
D----------------------|
A----------------------|
E----------------------|

Guitar 2

e-------------|
B------13vvv--|
G-10-12-------|
D-------------|
A-------------|
E-------------|

Guitar 1

e----------------------|
B-10h15p10-10h15p10vvv-|
G----------------------|
D----------------------|
A----------------------|
E----------------------|
Guitar 2

e---------------|
B---------------|
G-10--9---------|
D------12-10vvv-|
A---------------|
E---------------|


Guitar 1

e----------------------|
B-10h15p10-10h15p10vvv-|
G----------------------|
D----------------------|
A----------------------|
E----------------------|

Guitar 2

e-------------|
B-------------|
G-12----------|
D---12-12vvv--|
A-------------|
E-------------| hold note


Guitar 1

e----------------------|
B-10h15p10-10h15p10vvv-|
G----------------------|
D----------------------|
A----------------------|
E----------------------|

Guitar 2

e------------|
B------------|
G-10-12------|
D------12vvv-|
A------------|
E------------|

Guitar 1

e----------------------|
B-10h15p10-10h15p10vvv-|
G----------------------|
D----------------------|
A----------------------|
E----------------------|

Guitar 2

e-------------|
B------13vvv--|
G-10-12-------|
D-------------|
A-------------|
E-------------|

Guitar 1

e----------------------|
B-10h15p10-10h15p10vvv-|
G----------------------|
D----------------------|
A----------------------|
E----------------------|

Guitar 2

e---------------|
B---------------|
G-10--9---------|
D------12-10vvv-|
A---------------|
E---------------|


Guitar 1

e----------------------|
B-10h15p10-10h15p10vvv-|
G----------------------|
D----------------------|
A----------------------|
E----------------------|

Guitar 2

e-------------|
B-------------|
G-12----------|
D---12-12vvv--|
A-------------|
E-------------|


Guitar 3 

Bright and slithy overdriven

e--------|
B--------|
G---0-5--|
D--0-3---|
A-0------|
E--------| x 2

e-------------------------|
B--------5--8vvv-----10vvv|
G---0-5-2-5---------------|
D--0-3--------------------|
A-0-----------------------|
E-------------------------|

e------------|
B-6p5--8-----|
G-----7----7-|
D------------|
A------------|
E------------| x 2 slow

e------------|
B-6p-5--8----|
G-----7----7-|
D------------|
A------------|
E------------| x 2fast

e-------------------------|
B-6p-5-6p-5-3-1p0-0-------|
G-----7----5-4---2-0-2p0--|
D-----------------------3-|
A-------------------------|
E-------------------------|

e--------------------|
B--------------------|
G-0------------------|
D--2-3-0-------------|
A-------3vvv-------4-|
E--------------------|


Guitar 1

e----------------------|
B-10h15p10-10h15p10vvv-|
G----------------------|
D----------------------|
A----------------------|
E----------------------|

Guitar 2

e------------|
B------------|
G-10-12------|
D------12vvv-|
A------------|
E------------|

Guitar 1

e----------------------|
B-10h15p10-10h15p10vvv-|
G----------------------|
D----------------------|
A----------------------|
E----------------------|

Guitar 2

e-------------|
B------13vvv--|
G-10-12-------|
D-------------|
A-------------|
E-------------|

Guitar 1

e----------------------|
B-10h15p10-10h15p10vvv-|
G----------------------|
D----------------------|
A----------------------|
E----------------------|

Guitar 2

e---------------|
B---------------|
G-10--9---------|
D------12-10vvv-|
A---------------|
E---------------|


Guitar 1

e----------------------|
B-10h15p10-10h15p10vvv-|
G----------------------|
D----------------------|
A----------------------|
E----------------------|

Guitar 2

e--------|
B--------|
G-12vvv--|
D--------|
A--------|
E--------|


















            
            
Suggest correction
Creating personal tab
Creating personal tab
You can edit any tab online and save it as your Personal.

You can edit, replace or remove any tab part or add personal notes – all changes will be seen only by you.

Personal tabs can be accessed anytime from any device, even offline.
Learn more »
Give kudos to tab author, rate the tab!
1 2 3 4 5
comments
print report bad tab
guest
You may want to rate the tab now too:
select rating
Wanna post a correction for this tab? Suggest correction