Oops, an error
Loading. Please wait.

The Good The Bad And The Ugly Tab

version 3
version 3

Whole song

Interactive

76,425 views 135 this week
8 commentsread comments
1 2 3 4 5
x 29
add to favorites
launch autoscroll
font size
0
reset
how to read this tab
guitar tuner
Autoscroll
slow
fast
+/-
esc
set tempo
stop
Help us to improve Ultimate-Guitar.com Take our survey!
×
Author
Capo
1st fret
e|-----------------------------------------------------------0----3-----5--|
b|------------1--------------------1-------------------1-------1-----------|
G|-------2------------------2--------------------2--------2----------------|
D|---0------3-----------0------3-------------0------3----------------------|
A|-0-----------------0-------------------0---------------------------------|
E|-------------------------------------------------------------------------|

e|--1p0----3---1p0----3--1p0---3--1p0---3--1p0----------|
b|-----3------3---3-----3---33---3---33---3---11h3-1----|
G|------------------------------------------------------|
D|------------------------------------------------------|
A|------------------------------------------------------|
E|------------------------------------------------------|

e|-----------------------------------------------------------------------1--|
b|-1p0-------------------------------------------------------------------3--|
G|-----22h4-2-2p0----0---------------------------------------------------2--|
D|----------------33---3-2-00-3-0-------------------------------------------|
A|---------------------------------3-------------4--------------------------|
E|--------------------------------------------------------------------------|



************************************

| h  Hammer-on
| p  Pull-off

************************************
Suggest correction
comments
print report bad tab
8 comments total. Showing first comments.
0 reply
Alex Thirkell 32 Sep 11, 2009 05:15 AM

I like it, thanks.

+2 reply
Dandido 10 Apr 17, 2010 07:23 AM

It's not capo on first fret but other than that, good tab.

+9 reply
CumDragon69 82 Mar 29, 2013 09:34 AM

What do I do if my guitar doesn't have 33 frets?

guest
You may want to rate the tab now too:
select rating
Wanna post a correction for this tab? Suggest correction