Oops, an error
Loading. Please wait.

The Good The Bad And The Ugly Tab

version 4
version 4

Whole song

Interactive

13,748 views 6 this week
1 commentread comment
1 2 3 4 5
accurate
x 6
add to favorites
launch autoscroll
font size
0
reset
how to read this tab
guitar tuner
Autoscroll
slow
fast
+/-
esc
set tempo
stop
Help us to improve Ultimate-Guitar.com Take our survey!
×
Author
This is just a few parts of the songs, the way i play it, and i thought it should 
be on this site. Listen to the song for timing.


E|---10--10------------------|
B|-10--10--10-----6---8------|
G|-----------------------7---|
D|---------------------------|
A|---------------------------|
E|---------------------------|


E|---10--10--------------8---|
B|-10--10--10-----6---8------|
G|---------------------------|
D|---------------------------|
A|---------------------------|
E|---------------------------|


E|---10----10--10---13--12--10----------10--10----------------|
B|-10--10-----------------------13----10--10---10--8----------|
G|-----------------------------------------------------7-7----|
D|------------------------------------------------------------|
A|------------------------------------------------------------|
E|------------------------------------------------------------|
|OR|
E|---10----10--10-----------------------10--10----------------|
B|-10--10----------6--5--3--1---------10--10---10--8----------|
G|-----------------------------------------------------7-7----|
D|------------------------------------------------------------|
A|------------------------------------------------------------|
E|------------------------------------------------------------|

 |  Repeat 2x   | 
E|--------------|-----------------3-5----|
B|--------------|-------------5p1--------|
G|-----2---5~~~-|-----2---5-2------------|
D|---0---3------|---0---3----------------|
A|-0------------|-0----------------------|
E|--------------|------------------------|
Suggest correction
comments
print report bad tab
1 comment total.
0 reply
miskatsu 104 wrote on November 19 2009, 01:07 pm

dude this tab exist's already! You just told about alternate picking!

guest
You may want to rate the tab now too:
select rating
Wanna post a correction for this tab? Suggest correction