Oops, an error
Loading. Please wait.

The Good The Bad And The Ugly Tab

version 4
version 4
13,177 views 21 this week
1 commentread comment
1 2 3 4 5
accurate
x 5
add to favorites
launch autoscroll
font size
0
reset
how to read this tab
guitar tuner
Tab Pro tools
  • play this tab
  • loop segment
  • change instrument
  • show fretboard
  • metronome
Autoscroll
slow
fast
+/-
esc
set tempo
stop
Contributor
This is just a few parts of the songs, the way i play it, and i thought it should 
be on this site. Listen to the song for timing.

(You have to go really fast on the 10s, if you want you can just alternate pick 
both strings at the same time,
 it will give basically the same sound.)
E|---10--10------------------|
B|-10--10--10-----6---8------|
G|-----------------------7---|
D|---------------------------|
A|---------------------------|
E|---------------------------|


E|---10--10--------------8---|
B|-10--10--10-----6---8------|
G|---------------------------|
D|---------------------------|
A|---------------------------|
E|---------------------------|


E|---10----10--10---13--12--10----------10--10----------------|
B|-10--10-----------------------13----10--10----10-8----------|
G|-----------------------------------------------------7-7----|
D|------------------------------------------------------------|
A|------------------------------------------------------------|
E|------------------------------------------------------------|

 |  Repeat 2x   | 
E|--------------|-----------------3-5----|
B|--------------|-------------5p1--------|
G|-----2---5~~~-|-----2---5-2------------|
D|---0---3------|---0---3----------------|
A|-0------------|-0----------------------|
E|--------------|------------------------|
 |You can also  |_______________________________________________________________________
 |strum all the strings after the G|-5~, to simulate the drum beat, i personally 
  prefer this than silence.      | 
 |You might want to pick your own personal chord to play at this point, it doesn't 
  really matter which you pick.|
comments
print report bad tab
1 comment total.
0 reply
miskatsu wrote on November 19 2009, 01:07 pm

dude this tab exist's already! You just told about alternate picking!

I want to post or [tab]
guest
You may want to rate the tab now too:
select rating
Please do not post tabs as comments. Select "correction" instead!