Oops, an error
Loading. Please wait.

The Good The Bad And The Ugly tab

version 5
version 5

Whole song

97,536 views 765 this week
9 commentsread comments
1 2 3 4 5
x 42
add to favorites
×
Save as Personal and add changes to this tab that will be seen only by you. Learn more ›
×
You can save this tab as Personal to edit and correct it or add notes. All changes will be seen only by you. Learn more »
launch autoscroll
font size
0
reset
how to read this tab
guitar tuner
backing track
0:00
0:00
edit
Autoscroll
slow
fast
+/-
esc
set tempo
stop
[INTRO]

e|----10----10-------------------------------------|
B|-10----10----10v~------6~------8~----------------|
G|---------------------------------------7~--------|
D|-------------------------------------------------|
A|-------------------------------------------------|
E|-------------------------------------------------|


[MAIN THEME] - Play this twice before moving onto the next part

e|----10----10-------------------------------------|
B|-10----10----10v~------6--8----------------------|
G|-----------------------------7~------------------|
D|-------------------------------------------------|
A|-------------------------------------------------|
E|-------------------------------------------------|

e|----10----10-----------------8~------------------|
B|-10----10----10v~------6--8----------------------|
G|-------------------------------------------------|
D|-------------------------------------------------|
A|-------------------------------------------------|
E|-------------------------------------------------|

e|----10----10-------------------------------------|
B|-10----10----10v~------6--5--3-------------------|
G|--------------------------------5~---------------|
D|-------------------------------------------------|
A|-------------------------------------------------|
E|-------------------------------------------------|

e|----10----10-------------------------------------|
B|-10----10----10v~------8^------------------------|
G|---------------------------7~--------------------|
D|-------------------------------------------------|
A|-------------------------------------------------|
E|-------------------------------------------------|

ELECTRIC GUITAR

e|--------------------|
B|--------------------|
G|-------2-----5------|
D|-0--3-----3---------| X 2
A|--------------------|
E|--------------------|

On the third time, I'm pretty sure this is played:

e|----------------------------3~------5~--|
B|-------------------5-----5--------------|
G|-------2-----5--2-----5-----------------|
D|-0--3-----3-----------------------------|  
A|----------------------------------------|
E|----------------------------------------|

Well, that's all! Enjoy my tab and rate! =)


************************************

v - vibrato
~ - hold note
^ - bend up

************************************

            
            
Suggest correction
Creating personal tab
Creating personal tab
You can edit any tab online and save it as your Personal.

You can edit, replace or remove any tab part or add personal notes – all changes will be seen only by you.

Personal tabs can be accessed anytime from any device, even offline.
Learn more »
comments
print report bad tab
9 comments total. Showing first comments.
+2 reply
<Guitar4God> 386 Jan 07, 2008 12:00 PM

very nice tab. this is a neat one to show off in front of your friends with!

+1 reply
fast-lagardo 10 Nov 12, 2008 09:01 AM

e|----10----10-------------------------------------|
B|-10----10----10v~------8^--3~--------------------|
G|-------------------------------------------------|
D|-------------------------------------------------|
A|-------------------------------------------------|
E|-------------------------------------------------|

insted of


e|----10----10-------------------------------------|
B|-10----10----10v~------8^------------------------|
G|---------------------------5~--------------------|
D|-------------------------------------------------|
A|-------------------------------------------------|
E|-------------------------------------------------|

0 reply
fast-lagardo 10 Nov 12, 2008 09:04 AM

oh yeah, you have bad spacing, still an amazing tab thank you, this is one of my favoret movies.

guest
You may want to rate the tab now too:
select rating
Wanna post a correction for this tab? Suggest correction