Oops, an error
Loading. Please wait.

Peter Pan chords

version 2
version 2

Whole song

109 views 1 this week
no commentswrite comment
1 2 3 4 5
3 more votes to show rating
add to favorites
×
Save as Personal and add changes to this tab that will be seen only by you. Learn more ›
×
You can save this tab as Personal to edit and correct it or add notes. All changes will be seen only by you. Learn more »
launch autoscroll
font size
0
reset
transpose
0
reset
simplify chords
display chords
guitar tuner
edit
Autoscroll
slow
fast
+/-
esc
set tempo
stop
Author
Strumming
There is no strumming pattern for this song yet. and get +5 IQ
[Intro]
E B E B


[Verse 1]
E            B        E                        B     E
Dicono tutti che non c'è ma io che l'ho visto so dov'è
A             E     A          B           E        B
Forse non immagini ma non è difficile comprendere
  E                   B   E                 B     E
L'hanno lasciato in libertà, vive lontano non è qua
A           B                    E          F#
Forse si nasconde in mezzo agli alberi
B          F#      B               F#        B
Vola veloce su di noi, fotografare tu non puoi
E                             F#
Chiede a una farfalla che gli faccia compagnia


[Chorus]
   B                      Bmaj7          
Ti abbandoni liberi le mani, non ti piace stare sveglio
C#m            F#
Meglio di così non saremo mai
   B                            Bmaj7
Ti addormenti, dimmi che lo senti che ti sta toccando piano
C#m              F#                         B  
Piano quanto vuoi come le carezze che non hai
F# E  F#   B


[Verse 2]
E               B   E                     B   E
Dicono che non tornerà ma come lo chiamo ci sarà
A           B               E      F#
Mi aiutava sempre a fare i compiti
B           F#     B               F#       B
Vola veloce su di noi cosa mi dice tu non sai
E                        F#
Vola raccontando quando non lo sentirai


[Chorus]
B                          Bmaj7
Ti confonde, dopo ti riprende quando vuole ti cattura
C#m             F#
Sei sicura che, non lo vuoi con te?
B                              Bmaj7
Ti accompagna, mare che ti bagna come fosse un temporale
C#m             F#                        B  F#
Sale dove vuoi, se ci credi forse lo vedrai.
Bm                       F# Bm
Chi sei, dimmi cosa vuoi?    Cosa devi raccontare?
A                      Em
Ci sei? Dimmi come sei, moriremo crescendo
Bm                    
                    [Fill 1]
Chi sei? Dimmi come fai a girare tutto il mondo
A                  F#                    Bm
Ci sei? Dove volerai solamente con la fantasia?


[solo]

   Bm                         A      D      Bm     A          F#
   PM----------------------
e|---------------------------------------------------------------------------|
B|-------------------------------------------------2h3p2------2h3p2----------|
G|----------------------------2------7------4--------------------------------|
D|-4--4-4---4--4-4---4--4-4---2------7------4--------------------------------|
A|-2--2-2---2--2-2---2--2-2---0------5------2--------------------------------|
E|---------------------------------------------------------------------------|

                 B         F#       B                  F#                E
e|----------------------------------------|------------------11-12-14-11-12--|
B|-14b16r14-12-14b16----14b16r14-12-14----|---------11-12-14-----------------|
G|-------------------------------------11-|---11-13--------------------------|
D|----------------------------------------|----------------------------------|
A|----------------------------------------|----------------------------------|
E|----------------------------------------|----------------------------------|

                                       F#
e|-11h12p11-------------------------------|----------------------------------|
B|----------14-12-11-12-14-14b16r14-12----|----------------------------------|
G|-------------------------------------11-|-------4-3-4-6--------------------|
D|----------------------------------------|----------------------------------|
A|----------------------------------------|----------------------------------|
E|----------------------------------------|----------------------------------|


[Chorus]
   B                       Bmaj7          
Ti abbandoni liberi le mani, non ti piace stare sveglio
C#m           F#
Meglio di così non saremo mai
B                           Bmaj7
Ti confonde, dopo ti riprende quando vuole ti cattura
C#m                  F#                        
Sei sicura che, non ci credi e non lo vuoi con te?


[Outro]
Bm                    
                    [Fill 1]
Chi sei, dimmi cosa vuoi? Cosa devi raccontare?
A                  F#
Ci sei, dove volerai solamente con la fantasia
   B                      Bmaj7          
Ti abbandoni liberi le mani, non ti piace stare sveglio
C#m           F#
Meglio di così non saremo mai davvero noi
Bm                    
                    [Fill 1]
Chi sei, dimmi cosa vuoi? Cosa devi raccontare?
A                      Em
Ci sei? Dimmi come sei, moriremo crescendo
Bm                    
                    [Fill 1]
Chi sei? Dimmi come fai a girare tutto il mondo
A                  F#
Ci sei? Dove volerai?
Bm
Chi sei, dimmi cosa vuoi? Cosa devi raccontare?
A                   F#
Ci sei, dove volerai?
Bm
Chi sei, dimmi come sei?


[Fill 1]

   PM-------
e|------------|
B|------------|
G|------------|
D|------------|
A|-2-4-5-4-2--|
E|------------|

            
            
Suggest correction
Creating personal tab
Creating personal tab
You can edit any tab online and save it as your Personal.

You can edit, replace or remove any tab part or add personal notes – all changes will be seen only by you.

Personal tabs can be accessed anytime from any device, even offline.
Learn more »
Give kudos to tab author, rate the tab!
1 2 3 4 5
comments
print report bad tab
guest
You may want to rate the tab now too:
select rating
Wanna post a correction for this tab? Suggest correction