Oops, an error
Loading. Please wait.

Be With You chords

version 4
version 4

Whole song

151 views 9 this week
no commentswrite comment
1 2 3 4 5
3 more votes to show rating
add to favorites
×
Save as Personal and add changes to this tab that will be seen only by you. Learn more ›
×
You can save this tab as Personal to edit and correct it or add notes. All changes will be seen only by you. Learn more »
launch autoscroll
font size
0
reset
transpose
0
reset
display chords
guitar tuner
edit
Autoscroll
slow
fast
+/-
esc
set tempo
stop
Strumming
There is no strumming pattern for this song yet. and get +5 IQ
ENRIQUE IGLESIAS: BE WITH YOU

original tab by Dan Collin
updates by Alex Demers includes:
- Capo on 4th
- Better timing
- Added most guitar fills
- Added missing chords during intro, interludes and solo
- Lyrics fixes

CAPO on 4th fret

* = let ring

[Intro]

e|---3---1---0--------------------------|
B|-------------3---3p1-3--3/5--5--------|
G|-0------------------------------------|
D|--------------------------------------|
A|--------------------------------------|
E|--------------------------------------|

e|---1/3--1--3/5--------------------0h1-0--|
B|---------------3-----1p0-----------------|
G|-0----------------------2----------------|
D|-----------------------------------------|
A|-----------------------------------------|
E|-----------------------------------------|

[Interlude]

Am Am Am Am

e|-------------|
B|-------------|
G|-------------|
D|-----------2-|   
A|-0-2---3-----|
E|-------------|(x2)


[Verse]

C                 G
   Monday night I feel so low
Am                      Em
   Count the hours they go so slow
F
   I know the sound of your voice
    Am
Can save my soul

e|--------------0-------|
B|----0----1------------|
G|--2-------------------|
D|----------------------|
A|----------------------|
E|----------------------|

C                G
   City lights, streets of gold
Am                           Em
   Look out my window to the world below

e|---------3------------|
B|-----0h1--------------|
G|--2-------------------|
D|----------------------|
A|----------------------|
E|----------------------|

F
   Moves so fast and it feels so cold
    Am
And I'm all alone

F
Don't let me die
F
I'm losing my mind
G*
   Baby just give me a sign


[Chorus]

    F               G
And now that you're gone
             Am                  Em
I just wanna be with you  (wanna be with you)
    F          G
And I can't go on
        Am            Em
I wanna be with you  (be with you)
      F
Wanna be with you


[Interlude]

Am Am Am Am

e|-----------------------------------------------|
B|-----------3/5--3-1-0------------------111/3\1-|
G|----------------------2------------------------|
D|---------2---------------------2---2\0/2-------|
A|-0--2--3---------------0--2--3-----------------|
E|-----------------------------------------------|


[Verse 2]

C                        G
   I can't sleep and I'm up all night
Am                       Em
   Through these tears I try to smile

e|-----------3----------|
B|-----0--1-------------|
G|--2-------------------|
D|----------------------|
A|----------------------|
E|----------------------|

F
   I know the touch of your hand
    Am
Can save my life

e|----------------------|
B|--0--1--3/5--3--1--1--|
G|----------------------|
D|----------------------|
A|----------------------|
E|----------------------|

F
Don't let me down
F
Come to me now
G*
   I got to be with you some how

[Chorus]

    F               G
And now that you're gone
             Am                  Em
I just wanna be with you  (wanna be with you)
    F          G
And I can't go on
        Am            Em
I wanna be with you  (be with you)
      F
Wanna be with you

[Solo]

Am Am Am Am

e|--------------------------------------------------|
B|---------------------------------3/5-5-5-3-1/3----|
G|-------------4-5--2/4\2---------------------------|
D|---------2---------------------2------------------|
A|-0--2--3---------------0--2--3--------------------|
E|--------------------------------------------------|

G G F C G G

e|----1/3-3-3-1-0-1--8-121212-10-8-7/8---------------|
B|-----------------------------------------8---------|
G|---------------------------------------------------|
D|---------------------------------------------------|
A|---------------------------------------------------|
E|---------------------------------------------------|

[Chorus]

    F*              G*
And now that you're gone
Am*                 Em*
   Who am I without you now
    F          G
and I can't go on
            Am             Em
I just wanna be with you  (be with you)



[Chorus]

    F               G
And now that you're gone
             Am                  Em
I just wanna be with you  (wanna be with you)
    F          G
And I can't go on
        Am            Em
I wanna be with you  (be with you)

    F               G
And now that you're gone
             Am            Em
I just wanna be with you
    F          G
And I can't go on
        Am            Em
I wanna be with you   whaaaaaa
F
   Just Wanna be with you
F
Wanna be with you



************************************

| h  Hammer-on
| /  Slide up
| \  Slide down

************************************

            
            
Suggest correction
Creating personal tab
Creating personal tab
You can edit any tab online and save it as your Personal.

You can edit, replace or remove any tab part or add personal notes – all changes will be seen only by you.

Personal tabs can be accessed anytime from any device, even offline.
Learn more »
Give kudos to tab author, rate the tab!
1 2 3 4 5
comments
print report bad tab
guest
You may want to rate the tab now too:
select rating
Wanna post a correction for this tab? Suggest correction