Oops, an error
Loading. Please wait.

Escapar chords

version 2
version 2

Whole song

  • Full song, proper tuning, key riff, source info.

Interactive

61 views 9 this week
no commentswrite comment
1 2 3 4 5
3 more votes to show rating
add to favorites
×
Save as Personal and add changes to this tab that will be seen only by you. Learn more ›
×
You can save this tab as Personal to edit and correct it or add notes. All changes will be seen only by you. Learn more »
launch autoscroll
font size
0
reset
transpose
0
reset
display chords
guitar tuner
edit
Autoscroll
slow
fast
+/-
esc
set tempo
stop
About this tab version
Full song, proper tuning, key riff, source info. Was this info helpful? Yes No
Strumming
There is no strumming pattern for this song yet. and get +5 IQ
-------------------------------------------------------------------------------
                            Escapar
-------------------------------------------------------------------------------
             
ARTIST: Enrique Iglesias
ALBUM:  Escape
YEAR: 2002 

tabbed by : pp1pete
Difference from other tabs
 full song
 proper tuning
 key riff



CAPO: non
TEMO: 126 bpm
TUNING: Standard

Lesson: Eb Ab Db Gb Bb Eb


 [INTRO] 

     C                                      F
 e||-------------------------------------|-----------------------------------------|
 B||-----------1-----1-------------------|--------1--------------------------------|
 G||-------0------0----------------------|-----------------------------------------|
 D||-------------------------------------|--3----------3---------------------------|
 A||-3-----------------------------------|-----------------------------------------|
 D||-------------------------------------|-----------------------------------------|

     Am                                     G
 e||-------------------------------------|-----------------------------------------|
 B||-----------1-----0-------------------|--------0--------------------------------|
 G||-------------------------------------|-----------------------------------------|
 D||-------2------2----------------------|-------------0---------------------------|
 A||-0-----------------------------------|-----------------------------------------|
 D||-------------------------------------|--3------------------------------------x2|


        

 [VERSE1]
               
 C         F
 Hey, tú y yo
     Am
 Es así
        G
 Sube y baja
                C
 Pero un día al fin
        F
 Sin querer
        Am
 Nos va bien
        G                  C
 Cuando uno ha dicho se acabó
     F
 Una voz
      Am
 Dice no
      G
 Y se queda


 [CHORUS1]
      C     F
 Si decides dejarme
 Am               G
 No te voy a suplicar
      C         F
 Allá tú si más tarde
        Am
 Aunque corras, te escondas
    G          C   F  
 No puedes escapar
        Am   
 Aunque corras, te escondas
    G          C
 No puedes escapar

 [VERSE2]

 C         F
 Hoy si te vas
      Am
 Ya verás
      G                  C
 Que no es tan fácil olvidar
      F
 Sabe bien
      Am
 Sabe mal
      G                 C
 Como sea pero es tan real
          F
 Que al final
      Am
 Lo demás
         G
 No te importa


 [CHORUS2]

      C     F
 Si decides dejarme
 Am               G
 No te voy a suplicar
      C         F
 Allá tú si más tarde
        Am
 Aunque corras, te escondas
    G          C     F  
 No puedes escapar
        Am   
 Aunque corras, te escondas
    C          F
 No puedes escapar



 [INTERLUDE]
      F
 Correrás (correrás)
           C
 Te esconderás (Te esconderás)
      F                      G     C 
 Pero no te escaparás (Pero no te escaparás)
      Am         G
 Correrás  (correrás)
          F
 Te esconderás (Te esconderás)
      G         
 Pero no te escaparás


 C       F
 Hoy una voz
      Am
 Dice no
      G
 Y se queda
              A
 Corre y dime adiós [tricky - lyric blend with next line. go from "dime" to "si decides"]


 [ENDING]

      C     F
 Si decides dejarme
 Am              G
 No te voy a suplicar
      C         F
 Allá tú si más tarde
        Am
 Aunque corras, te escondas
    G           C  
 No puedes (escapar)


     C      F
 Si decides dejarme
 Am              G
 No te voy a suplicar
      C         F
 Allá tú si más tarde
        Am
 Aunque corras, te escondas
    G           C  
 No puedes (escapar)


 C       F
 You can run
 Am      G
 You can run
 C       F
 You can run
 Am      G
 You can run
 C       F
 You can run
 Am      G
 You can run
 
 C       F
 You can run   (arpeggio riff)
 Am      G      
 You can run

 C       F

     G           C  
 No puedes (escapar)







            
            
Suggest correction
Creating personal tab
Creating personal tab
You can edit any tab online and save it as your Personal.

You can edit, replace or remove any tab part or add personal notes – all changes will be seen only by you.

Personal tabs can be accessed anytime from any device, even offline.
Learn more »
Give kudos to tab author, rate the tab!
1 2 3 4 5
comments
print report bad tab
guest
You may want to rate the tab now too:
select rating
Wanna post a correction for this tab? Suggest correction