Oops, an error
Loading. Please wait.

Escape tab

version 2
version 2

Whole song

Interactive

48,128 views 9 this week
5 commentsread comments
1 2 3 4 5
x 11
add to favorites
×
Save as Personal and add changes to this tab that will be seen only by you. Learn more ›
×
You can save this tab as Personal to edit and correct it or add notes. All changes will be seen only by you. Learn more »
launch autoscroll
font size
0
reset
how to read this tab
guitar tuner
edit
Autoscroll
slow
fast
+/-
esc
set tempo
stop
Author
Difficulty
Enrique Iglesias: Escape
------------------------
(I'm sure everything is 100% correct)

This is the main riff that is played through whole song on verses

   B        E        | G#m      F
E|-------------------|---------------------|
B|-------------------|---------------------|
G|------4---4---4----|------4---4---3------|
D|----4---4---2---2--|----------------4----|
A|-2-----------------|----6---6------------|
E|-------------------|-4----------2--------|


Chorus:

       B         E
If you feel like leavin'
G#m                    F#
I'm not gonna make you stay
    B              E
But soon you'll be finding
        G#m                       F#
You can run, you can hide but you can't escape my love

"solo" riff during chorus goes like this:
E|-----------------------------------------|
B|---12---12h11-7-----12-12-11--12/14------|
G|-----------------------------------------|
D|-----------------------------------------|
A|-----------------------------------------|
E|-----------------------------------------|

And there is also some sort of bridge:

        E            G#m           F#
You can run, you can hide, but you can't escape my love

        G#m          E             F#
You can run, you can hide, but you can't escape my love

These are all guitar parts that are included in this song. Which one goes
with which part of the song figure out by yourself.

===========Another Version==================================================

Enrique Iglesias - Escape

Hi everybody!

Here is the beginning of the song "escape" by Enrique Iglesias. I figured it out quite quickly.

        B                E              G#m             F#
e-----------------------------------------------------------------------------------------------------|
b-----------------------------------------------------------------------------------------------------|
g-----------------------------------------------------------------------------------------------------|
d-------------------------9--------9-------9---------------------------6--------6--------------4------|
a--------------------9--------9-------7--------7-----------------6--------6------------------------4--|
e---------------7----------------------------------------------4-----------------------------2--------|

            
            
Suggest correction
Creating personal tab
Creating personal tab
You can edit any tab online and save it as your Personal.

You can edit, replace or remove any tab part or add personal notes – all changes will be seen only by you.

Personal tabs can be accessed anytime from any device, even offline.
Learn more »
comments
print report bad tab
5 comments total. Showing first comments.
+1 reply
Cpcrasher 37 Aug 20, 2006 11:48 AM

really good, but shouldn't the intro be F"#"?

+1 reply
weejohnmclean 10 Feb 16, 2009 01:29 AM

he's right it should b f#

0 reply
Paydro91 102 Apr 27, 2009 08:29 AM

B|---12---12h11-7-----12-12-11--12/14------|
^ you mean 12p11

lol srry i just culdn't help pointing it out

nice tab btw

guest
You may want to rate the tab now too:
select rating
Wanna post a correction for this tab? Suggest correction