Oops, an error
Loading. Please wait.

Hero Tab

version 6
version 6

Interactive

Video

211,254 views 48 this week
6 commentsread comments
1 2 3 4 5
x 88
add to favorites
launch autoscroll
font size
0
reset
how to read this tab
guitar tuner
×
Best way to learn
"Hero"
Autoscroll
slow
fast
+/-
esc
set tempo
stop
[Intro]
(Let the very last note ring)
e|------3---------3----------3----------3----------3------|
B|--------3---------3----------3----------3----------3----|
G|----0-----0---0-----0----0-----0----0-----0----0-----0--|
D|--------------------------------------------------------|
A|---------------------------------------------3----------|
E|-3----------3----------0----------0---------------------|

e|------3-----------3-------|
B|--------3-----------3-----|
G|----0-----0-----0-----0---|
D|--------------0---------0-|
A|--3-----------------------|
E|--------------------------|

[Verse]
e|------3---------3----------3----------3----------3------|
B|--------3---------3----------3----------3----------3----|
G|----0-----0---0-----0----0-----0----0-----0----0-----0--|
D|--------------------------------------------------------|
A|---------------------------------------------3----------|
E|-3----------3----------0----------0---------------------|

e|-----3------------3-------------3-----------|
B|--------3-------=---3-------------3---------|
G|---0------0-----0-----0-------0-----0-------|
D|--------------0---------0---0---------0-----|
A|-3------------------------------------------|
E|--------------------------------------------|

1)Would you dance.....if I asked you to dance..Would you run......and never look back
2)Would you tremble..if I touched your lips...Would you laugh..oh please tell me this

[Verse]
(Part 2)
(repeat last G chord picking series thing once)
(so it’s played twice at the end)
e|------3---------3----------3----------3----------3------|
B|--------3---------3----------3----------3----------3----|
G|----0-----0---0-----0----0-----0----0-----0----0-----0--|
D|--------------------------------------------------------|
A|---------------------------------------------3----------|
E|-3----------3----------0----------0---------------------|

e|------3-----------3------|
B|--------3-----------3----|
G|----0-----0-----0-----0—-|
D|--0----------------------|
A|-------------------------|
E|--------------3----------|

1)Would you cry.......if you saw me crying..Would you save my soul....... tonight
2)Now would you die...for the one you love..Hold me in your....arms tonight

[Chorus 1]
(Strum this, figure out the rhythm on your own)
G     D            C
I can be your hero baby
G     D            C
I can kiss away the pain
G     D            C
I will stand by you forever
G     D            C
You can take my breath away

[Verse]
Would you swear that you'll always be mine
Would you lie would you run and hide
Am I in too deep have I lost my mind
Well I don't care you're here tonight

[Chorus 1]
(Strum this, figure out the rhythm on your own)
G     D            C
I can be your hero baby
G     D            C
I can kiss away the pain
G     D            C
I will stand by you forever
G     D            C
You can take my breath away

[Solo]
e|---------------------------------------------------|
B|---------------------------------------------------|
G|---------------------------------------------------|
D|-5-5-5-7-7/9-9--7/9-9-9-7-5-5----5-----------------|
A|-----------------------------------5-5/7—7h8p7\5---|
E|---------------------------------------------------|

e|---------------------------------------------------------|
B|---------7------------7------*7-8-7----------------------|
G|-5/7-7-7---7----7-7-7---7—--*7-------7-----------------7-|
D|---------------------------*7---------7/9-7---7/9\5/7----|
A|---------------------------------------------------------|
E|---------------------------------------------------------|
*strum these so you can hear each individual note going up

[Verse]
Ohh I just wanna hold you
I just wanna hold you
Am I in too deep
Have I lost my mind
I don’t care you’re here tonight

[Chorus 2]
(repeated, same chords as 1st chorus)
I can be your hero
I can kiss away the pain
And I will stand by you forever
You can take my breath away
You can take my breath away
I can be your hero


************************************

| /  Slide up
| h  Hammer-on
| p  Pull-off
| \  Slide down
| *  Natural harmonic

************************************
Suggest correction
comments
print report bad tab
6 comments total. Showing first comments.
0 reply
e_dude_08 10 Jun 04, 2008 07:48 AM

Sounds Good! Great job!

0 reply
coldfry1 2,137 Sep 12, 2008 11:08 AM

if ur cheap like me and have the cheap version here's the solo:

E--------------
B--------------
G--------------
D-5-5-5-7-7/9-9
A--------------
E--------------

E-----------------------------------------------
B---------7------------*7-8-7-------------------
G-5/7-7-7---7---------*7-----------------------7
D--------------------*7--------7/9-7---7/9\5/7--
A-----------------------------------------------
E-----------------------------------------------

-2 reply
Fenderof94 10 Jul 14, 2010 10:40 AM

Great tab, I was just wondering what's the strum pattern from the chords part?

guest
You may want to rate the tab now too:
select rating
Wanna post a correction for this tab? Suggest correction