Oops, an error
Loading. Please wait.

Guardians Of Fate tab

version 2
version 2

Whole song

Interactive

5,898 views 1 this week
no commentswrite comment
1 2 3 4 5
x 5
add to favorites
×
Save as Personal and add changes to this tab that will be seen only by you. Learn more ›
×
You can save this tab as Personal to edit and correct it or add notes. All changes will be seen only by you. Learn more »
launch autoscroll
font size
0
reset
how to read this tab
guitar tuner
edit
Autoscroll
slow
fast
+/-
esc
set tempo
stop
                              Guardians Of Fate                                 


                                                                       Ensiferum
Lead Guitar




     E  E  E  E  E  E  E  E     E  E  E  E  E  E  E  E   
E||--------------------------|--------------------------|
B||--------------------------|--------------------------|
G||--------------------------|--------------------------|
D||--------------6--6--6--6--|--------------2--2--2--2--|
A||--4--4--4--4--4--4--4--4--|--2--2--2--2--0--0--0--0--|
E||--2--2--2--2--------------|--0--0--0--0--------------|


                                            Scratch with your hand.           
  E  E  E  E  E  E  E  E     E  E  E  E  E  S                       S S S E   
--------------------------|--------------------------------------------------|
--------------------------|--------------------------------------------------|
--------------------------|--------------------------------------------------|
--------------6--6--6--6--|--------------------------------------------------|
--2--2--2--2--4--4--4--4--|--4--4--4--2--4--x-----------------------x-x-x-x--|
--0--0--0--0--------------|--2--2--2--0--2--x-----------------------x-x-x-x--|


  E  E  E  S S E  E  E  S S    E  E  E  S S E  E  E  S S  
----------------------------|----------------------------|
----------------------------|----------------------------|
----------------------------|----------------------------|
---------------6--6--6--6-6-|---------------2--2--2--2-2-|
--4--4--4--4-4-4--4--4--4-4-|--2--2--2--2-2-0--0--0--0-0-|
--2--2--2--2-2--------------|--0--0--0--0-0--------------|


  E  E  E  S S E  E  E  S S    E  E  E  E  E  E  Q       H        Q    Q     
----------------------------|-------------------------|---------------------|
----------------------------|-------------------------|---------------------|
----------------------------|-------------------------|---------------------|
---------------6--6--6--6-6-|-------------------------|--4--------6----7----|
--2--2--2--2-2-4--4--4--4-4-|--4--4--4--2--4----------|---------------------|
--0--0--0--0-0--------------|--2--2--2--0--2----------|---------------------|


  Q    E  E  Q    E  E     H        E  E  Q       W                 
------------------------|----------------------|-------------------|
------------------------|----------------------|-------------------|
------------------------|--4-------------------|-------------------|
--6----6-----7----6--7--|-----------7--6-------|--4----------------|
----------7-------------|-----------------7----|-------------------|
------------------------|----------------------|-------------------|


  H        Q    Q       Q    E  E  Q    E  E     H        E  E  Q     
---------------------|------------------------|----------------------|
---------------------|------------------------|----------------------|
---------------------|------------------------|--4-------------------|
--4--------6----7----|--6----6-----7----6--7--|-----------7--6-------|
---------------------|----------7-------------|-----------------7----|
---------------------|------------------------|----------------------|


  W                   S S S S S S S S S S S S S S S S  
-------------------|----------------------------------|
-------------------|----------------------------------|
-------------------|----------------------------------|
--4----------------|--4-4-4-4-4-4-4-4-6-6-6-6-7-7-7-7-|
-------------------|----------------------------------|
-------------------|----------------------------------|


  S S S S S S S S S S S S S S S S    S S S S S S S S S S S S S S S S  
----------------------------------|----------------------------------|
----------------------------------|----------------------------------|
----------------------------------|--4-4-4-4-4-4-4-4-----------------|
--6-6-6-6-6-6-----7-7-7-7-6-6-7-7-|------------------7-7-6-6---------|
--------------7-7-----------------|--------------------------7-7-7-7-|
----------------------------------|----------------------------------|


  S S S S S S S S S S S S S S S S    H        Q    Q     
----------------------------------|---------------------|
----------------------------------|---------------------|
----------------------------------|---------------------|
--4-4-4-4-4-4-4-4-4-4-4-4-4-4-4-4-|--4--------6----7----|
----------------------------------|---------------------|
----------------------------------|---------------------|


  Q    E  E  Q    E  E     H        E  E  Q       W                 
------------------------|----------------------|-------------------|
------------------------|----------------------|-------------------|
------------------------|--4-------------------|-------------------|
--6----6-----7----6--7--|-----------7--6-------|--4----------------|
----------7-------------|-----------------7----|-------------------|
------------------------|----------------------|-------------------|


  E  S S S S S S E  E  E  E     E  S S S S S S S S S S S S S S  
-----------------------------|---------------------------------|
-----------------------------|---------------------------------|
-----------------------------|---------------------------------|
-----------------------------|--7------------------------------|
--4--------------4-----2-----|--5--5-5-5-5-5-5-5-5-5-5-5-5-5-5-|
--2--2-2-2-2-2-2-2-----0-----|---------------------------------|


  E  S S S S S S E  E  E  E     E  S S S S S S E  S S S S S S  
-----------------------------|--------------------------------|
-----------------------------|--------------------------------|
-----------------------------|--------------------------------|
--6--------------7-----6-----|-----------------6--------------|
--4--4-4-4-4-4-4-4-----4-----|--7--------------4--4-4-4-4-4-4-|
-----------------------------|--5--5-5-5-5-5-5----------------|


  E  S S S S S S E  E  E  E     E  S S S S S S S S S S S S S S  
-----------------------------|---------------------------------|
-----------------------------|---------------------------------|
-----------------------------|---------------------------------|
-----------------------------|--7------------------------------|
--4--------------4-----2-----|--5--5-5-5-5-5-5-5-5-5-5-5-5-5-5-|
--2--2-2-2-2-2-2-2-----0-----|---------------------------------|


  E  S S S S S S E  E  E  E     E  S S S S S S E  S S S S S S  
-----------------------------|--------------------------------|
-----------------------------|--------------------------------|
-----------------------------|--------------------------------|
--6--------------7-----6-----|-----------------6--------------|
--4--4-4-4-4-4-4-4-----4-----|--7--------------4--4-4-4-4-4-4-|
-----------------------------|--5--5-5-5-5-5-5----------------|


  E  S S S S S S Q    Q       E  S S S S S S S S S S S S S S  
---------------------------|---------------------------------|
---------------------------|---------------------------------|
---------------------------|---------------------------------|
--4--4-4-4-4-4-4-4----6----|--7--7-7-7-7-7-7-7-7-7-7-7-7-7-7-|
---------------------------|---------------------------------|
---------------------------|---------------------------------|


  E  S S S S S S S S S S S S S S    E  S S S S S S S S S S S S S S  
---------------------------------|---------------------------------|
---------------------------------|---------------------------------|
-----------------6-6-6-6-4-4-4-4-|---------------------------------|
--6--6-6-6-6-6-6-----------------|--7--7-7-7-7-7-7-6-6-6-6-6-6-6-6-|
---------------------------------|---------------------------------|
---------------------------------|---------------------------------|


  E  S S S S S S Q    Q       E  S S S S S S S S S S S S S S  
---------------------------|---------------------------------|
---------------------------|---------------------------------|
---------------------------|---------------------------------|
--4--4-4-4-4-4-4-4----6----|--7--7-7-7-7-7-7-7-7-7-7-7-7-7-7-|
---------------------------|---------------------------------|
---------------------------|---------------------------------|


  E  S S S S S S S S S S S S S S    Q    Q    Q    Q     
---------------------------------|----------------------|
---------------------------------|----------------------|
---------------------------------|-------6--------------|
--6--6-6-6-6-6-6-6-6-6-6-9-9-9-9-|--7---------9----6----|
---------------------------------|----------------------|
---------------------------------|----------------------|


  Q    E  E  Q    E  E     E  E  Q    Q    E  E     Q    E  E  Q    E  E   
------------------------|------------------------|------------------------|
------------------------|------------------------|------------------------|
------------------------|------------------------|------------------------|
-------------2----2--2--|------------------------|-------------9----9--9--|
--4----4--4--0----0--0--|--------2----4----------|--7----7--7--7----7--7--|
--2----2--2-------------|--0--0--0----2----2--4--|--5----5--5-------------|


  Q    E  E  Q    Q       Q    E  E  Q    E  E     E  E  Q    Q    E  E   
-----------------------|------------------------|------------------------|
-----------------------|------------------------|------------------------|
-----------------------|------------------------|------------------------|
-------------6----6----|-------------2----2--2--|------------------------|
--4----4--4--4----4----|--4----4--4--0----0--0--|--------2----4----------|
--2----2--2------------|--2----2--2-------------|--0--0--0----2----2--4--|


  Q    E  E  Q    E  E     E  E  Q     H           E  E  Q    S  S E  Q     
------------------------|-----------------------|--------------------------|
------------------------|-----------------------|--------------------------|
------------------------|-----------------------|--------------------------|
-------------9----9--9--|--6--6--6----11--------|--4--7--7----7p-6---------|
--7----7--7--7----7--7--|--4--4--4-----9--------|------------------7--7----|
--5----5--5-------------|-----------------------|--------------------------|


  E  E  Q    S  S E  Q       E  E  Q    S  S E  Q     
--------------------------|--------------------------|
--------------------------|--------------------------|
-----6--6----6p-4---------|--------------------------|
--7---------------6--6----|--4--7--7----7p-6---------|
--------------------------|------------------7--7----|
--------------------------|--------------------------|


  E  E  Q    S  S E  Q       E  E  Q    S  S E  Q     
--------------------------|--------------------------|
--------------------------|--------------------------|
-----6--6----6p-4---------|--------------------------|
--7---------------6--6----|--4--7--7----7p-6---------|
--------------------------|------------------7--7----|
--------------------------|--------------------------|


  E  E  Q    S  S E  Q       E  E  Q    S  S E  Q     
--------------------------|--------------------------|
--------------------------|--------------------------|
-----6--6----6p-4---------|--------------------------|
--7---------------6--6----|--4--7--7----7p-6---------|
--------------------------|------------------7--7----|
--------------------------|--------------------------|


  E  E  Q    S  S E  Q       H        Q    Q       Q    E  E  Q    E  E   
--------------------------|---------------------|------------------------|
--------------------------|---------------------|------------------------|
-----6--6----6p-4---------|---------------------|------------------------|
--7---------------6--6----|--4--------6----7----|--6----6-----7----6--7--|
--------------------------|---------------------|----------7-------------|
--------------------------|---------------------|------------------------|


  H        E  E  Q       W                   H        Q    Q     
----------------------|-------------------|---------------------|
----------------------|-------------------|---------------------|
--4-------------------|-------------------|---------------------|
-----------7--6-------|--4----------------|--4--------6----7----|
-----------------7----|-------------------|---------------------|
----------------------|-------------------|---------------------|


  Q    E  E  Q    E  E     H        E  E  Q       W                 
------------------------|----------------------|-------------------|
------------------------|----------------------|-------------------|
------------------------|--4-------------------|-------------------|
--6----6-----7----6--7--|-----------7--6-------|--4----------------|
----------7-------------|-----------------7----|-------------------|
------------------------|----------------------|-------------------|


  E  S S S S S S E  E  E  E     E  S S S S S S S S S S S S S S  
-----------------------------|---------------------------------|
-----------------------------|---------------------------------|
-----------------------------|---------------------------------|
-----------------------------|--7------------------------------|
--4--------------4-----2-----|--5--5-5-5-5-5-5-5-5-5-5-5-5-5-5-|
--2--2-2-2-2-2-2-2-----0-----|---------------------------------|


  E  S S S S S S E  E  E  E     E  S S S S S S E  S S S S S S  
-----------------------------|--------------------------------|
-----------------------------|--------------------------------|
-----------------------------|--------------------------------|
--6--------------7-----6-----|-----------------6--------------|
--4--4-4-4-4-4-4-4-----4-----|--7--------------4--4-4-4-4-4-4-|
-----------------------------|--5--5-5-5-5-5-5----------------|


  E  S S S S S S E  E  E  E     E  S S S S S S S S S S S S S S  
-----------------------------|---------------------------------|
-----------------------------|---------------------------------|
-----------------------------|---------------------------------|
-----------------------------|--7------------------------------|
--4--------------4-----2-----|--5--5-5-5-5-5-5-5-5-5-5-5-5-5-5-|
--2--2-2-2-2-2-2-2-----0-----|---------------------------------|


  E  S S S S S S  E  E  E  E     H        H           Q    Q    Q    Q     
------------------------------|--------------------|------------9----9----|
------------------------------|--------------------|--7----7--------------|
------------------------------|--------------------|----------------------|
--9--------------11-----9-----|-----------6--------|----------------------|
--7--7-7-7-7-7-7--7-----7-----|--7--------4--------|----------------------|
------------------------------|--5-----------------|----------------------|


  E  E  Q     Q     E   E     Q    E   E   Q     E   E   
--7--9--7----------14--12--|--9----9--11--12----12--11--|
-------------10------------|----------------------------|
---------------------------|----------------------------|
---------------------------|----------------------------|
---------------------------|----------------------------|
---------------------------|----------------------------|


  E  E  E   E  Q     E  E     Q    Q    Q    Q       Q    E  E   Q    E  E   
--9--7--9--11--9-----------|------------9----9----|--7----9--7--------------|
--------------------10--9--|--7----7--------------|-------------10----7--9--|
---------------------------|----------------------|-------------------------|
---------------------------|----------------------|-------------------------|
---------------------------|----------------------|-------------------------|
---------------------------|----------------------|-------------------------|


   Q     Q    Q    Q       E   E  E   E  H           E  E  Q    S  S E  Q     
--------------7----7----|--7----------------------|--------------------------|
--10----10--------------|-----10--9--10--7--------|--------------------------|
------------------------|-------------------------|--------------------------|
------------------------|-------------------------|--4--7--7----7p-6---------|
------------------------|-------------------------|------------------7--7----|
------------------------|-------------------------|--------------------------|


  E  E  Q    S  S E  Q       E  E  Q    S  S E  Q     
--------------------------|--------------------------|
--------------------------|--------------------------|
-----6--6----6p-4---------|--------------------------|
--7---------------6--6----|--4--7--7----7p-6---------|
--------------------------|------------------7--7----|
--------------------------|--------------------------|


  E  E  Q    S  S E  Q       E  E  Q    S  S E  Q     
--------------------------|--------------------------|
--------------------------|--------------------------|
-----6--6----6p-4---------|--------------------------|
--7---------------6--6----|--4--7--7----7p-6---------|
--------------------------|------------------7--7----|
--------------------------|--------------------------|


  E  E  Q    S  S E  Q       E  E  Q    S  S E  Q     
--------------------------|--------------------------|
--------------------------|--------------------------|
-----6--6----6p-4---------|--------------------------|
--7---------------6--6----|--4--7--7----7p-6---------|
--------------------------|------------------7--7----|
--------------------------|--------------------------|


  E  E  Q    S  S E  Q       H        Q    Q       Q    E  E  Q    E  E   
--------------------------|---------------------|------------------------|
--------------------------|---------------------|------------------------|
-----6--6----6p-4---------|---------------------|------------------------|
--7---------------6--6----|--4--------6----7----|--6----6-----7----6--7--|
--------------------------|---------------------|----------7-------------|
--------------------------|---------------------|------------------------|


  H        E  E  Q       W                   H        Q    Q     
----------------------|-------------------|---------------------|
----------------------|-------------------|---------------------|
--4-------------------|-------------------|---------------------|
-----------7--6-------|--4----------------|--4--------6----7----|
-----------------7----|-------------------|---------------------|
----------------------|-------------------|---------------------|


  Q    E  E  Q    E  E     H        E  E  Q       W                 
------------------------|----------------------|-------------------|
------------------------|----------------------|-------------------|
------------------------|--4-------------------|-------------------|
--6----6-----7----6--7--|-----------7--6-------|--4----------------|
----------7-------------|-----------------7----|-------------------|
------------------------|----------------------|-------------------|


  W                   W                   W                   W                 
-------------------|-------------------|-------------------|-------------------|
-------------------|-------------------|-------------------|-------------------|
-------------------|-------------------|-------------------|-------------------|
--4----------------|-------------------|-------------------|--6----------------|
--2----------------|--2----------------|--4----------------|--4----------------|
-------------------|--0----------------|--2----------------|-------------------|


  W                   W                   H        H         
-------------------|-------------------|--------------------|
-------------------|-------------------|--------------------|
-------------------|-------------------|--------------------|
--4----------------|-------------------|-----------6--------|
--2----------------|--2----------------|--4--------4--------|
-------------------|--0----------------|--2-----------------|


  H        H           Q    Q    E  E  Q       Q    E  E  Q    Q     
--------------------|-----------------------|-----------------------|
--------------------|-----------------------|-----------------------|
--------------------|-----------------------|-----------------------|
--2-----------------|--4--------------------|--6--------------------|
--0--------2--------|--2----2----4----------|--4-------2--4---------|
-----------0--------|-------0----2----------|----------0--2---------|


  E  S S E  S S E  S S Q       E  S S E  S S E  S S Q     
----------------------------|----------------------------|
----------------------------|----------------------------|
----------------------------|----------------------------|
----------------------------|----------------------------|
--9------9------9------2----|--4------4------4------7----|
--7--7-7-7--7-7-7--7-7-0----|--2--2-2-2--2-2-2--2-2-5----|


  E  S S E  S S E  S S E  S S    E  S S E  S S E  S S S S S S  
------------------------------|-------------------------------|
------------------------------|-------------------------------|
------------------------------|-------------------------------|
--6------6--------------------|-------------------------------|
--4--4-4-4--4-4-2------2------|--4------4------4--------------|
----------------0--0-0-0--0-0-|--2--2-2-2--2-2-2--2-2-2-2-2-2-|


  E  S S E  S S E  S S Q       E  S S E  S S E  S S Q     
----------------------------|----------------------------|
----------------------------|----------------------------|
----------------------------|----------------------------|
----------------------------|----------------------------|
--9------9------9------2----|--4------4------4------7----|
--7--7-7-7--7-7-7--7-7-0----|--2--2-2-2--2-2-2--2-2-5----|


  E  S S E  S S Q    Q        Q    Q    Q    Q       E  E  Q    S  S E  Q     
--------------------------|-----------------------|--------------------------|
--------------------------|-----------------------|--------------------------|
--------------------------|-----------------------|--------------------------|
--6------6------9----6----|--11-------------------|--4--7--7----7p-6---------|
--4--4-4-4--4-4-7----4----|---9-------------------|------------------7--7----|
--------------------------|-----------------------|--------------------------|


  E  E  Q    S  S E  Q       E  E  Q    S  S E  Q     
--------------------------|--------------------------|
--------------------------|--------------------------|
-----6--6----6p-4---------|--------------------------|
--7---------------6--6----|--4--7--7----7p-6---------|
--------------------------|------------------7--7----|
--------------------------|--------------------------|


  E  E  Q    S  S E  Q       E  E  Q    S  S E  Q     
--------------------------|--------------------------|
--------------------------|--------------------------|
-----6--6----6p-4---------|--------------------------|
--7---------------6--6----|--4--7--7----7p-6---------|
--------------------------|------------------7--7----|
--------------------------|--------------------------|


  E  E  Q    S  S E  Q       E  E  Q    S  S E  Q     
--------------------------|--------------------------|
--------------------------|--------------------------|
-----6--6----6p-4---------|--------------------------|
--7---------------6--6----|--4--7--7----7p-6---------|
--------------------------|------------------7--7----|
--------------------------|--------------------------|


  E  E  Q    S  S E  Q       H        Q    Q       Q    E  E  Q    E  E   
--------------------------|---------------------|------------------------|
--------------------------|---------------------|------------------------|
-----6--6----6p-4---------|---------------------|------------------------|
--7---------------6--6----|--4--------6----7----|--6----6-----7----6--7--|
--------------------------|---------------------|----------7-------------|
--------------------------|---------------------|------------------------|


  H        E  E  Q       W                   H        Q    Q     
----------------------|-------------------|---------------------|
----------------------|-------------------|---------------------|
--4-------------------|-------------------|---------------------|
-----------7--6-------|--4----------------|--4--------6----7----|
-----------------7----|-------------------|---------------------|
----------------------|-------------------|---------------------|


  Q    E  E  Q    E  E     H        E  E  Q       W                 
------------------------|----------------------|-------------------|
------------------------|----------------------|-------------------|
------------------------|--4-------------------|-------------------|
--6----6-----7----6--7--|-----------7--6-------|--4----------------|
----------7-------------|-----------------7----|-------------------|
------------------------|----------------------|-------------------|


  H        Q    Q       Q    E  E  Q    E  E     H        E  E  Q     
---------------------|------------------------|----------------------|
---------------------|------------------------|----------------------|
---------------------|------------------------|--4-------------------|
--4--------6----7----|--6----6-----7----6--7--|-----------7--6-------|
---------------------|----------7-------------|-----------------7----|
---------------------|------------------------|----------------------|


  W                   H        Q    Q       Q    E  E  Q    E  E   
-------------------|---------------------|------------------------|
-------------------|---------------------|------------------------|
-------------------|---------------------|------------------------|
--4----------------|--4--------6----7----|--6----6-----7----6--7--|
-------------------|---------------------|----------7-------------|
-------------------|---------------------|------------------------|


  H        E  E  Q       H        H           W                 
----------------------|--------------------|-------------------|
----------------------|--------------------|-------------------|
--4-------------------|--------------------|-------------------|
-----------7--6-------|--4--------L--------|--L----------------|
-----------------7----|--------------------|-------------------|
----------------------|--------------------|-------------------|


   |---3---|          |---3---|                                  
   E   E   E   E  E   E   E   E   Q        Q     H.              
----------------------------------------|----------------------||
----------------------------------------|----------------------||
--11--11--11--11-----11--11--11--11S----|--L----(4)------------||
--11--11--11--11-----11--11--11--11S----|--L----(4)------------||
---9---9---9---9------9---9---9---9S----|--L----(2)------------||
----------------------------------------|----------------------||




Duration Legend
---------------
W - whole
H - half
Q - quarter
E - 8th
S - 16th
T - 32nd
X - 64th
. - note dotted
|-n-|  - n-tuplets


Tablature Legend
----------------
L - tied note
x - dead note
g - grace note
(n) - ghost note
> - accentuded note
NH - natural harmonic
AH - artificial harmonic
TH - tapped harmonic
SH - semi harmonic
PH - pitch harmonic
h - hammer on
p - pull off
b - bend
br - bendRelease
pb - preBend
pbr - preBendRelease
brb - bendReleaseBend
\n/ - tremolo bar dip
\n - tremolo bar dive
-/n - tremolo bar Release up
/n\ - tremolo bar inverted dip
/n - tremolo bar return
-\n - tremolo bar Release down
S - shift slide
s - legato slide
/ -  slide into from below or out of upwards
\ -  slide into from above or out of downwards
~ - vibrato
W - wide vibrato
tr - trill
TP - tremolo picking
T - tapping
S - slap
P - pop
< - fade in
^ - brush up
v - brush down
Suggest correction
Creating personal tab
Creating personal tab
You can edit any tab online and save it as your Personal.

You can edit, replace or remove any tab part or add personal notes – all changes will be seen only by you.

Personal tabs can be accessed anytime from any device, even offline.
Learn more »
comments
print report bad tab
guest
You may want to rate the tab now too:
select rating
Wanna post a correction for this tab? Suggest correction