Oops, an error
Loading. Please wait.

Lai Lai Hei bass

version 1
version 1

Whole song

Interactive

6,240 views 3 this week
no commentswrite comment
1 2 3 4 5
2 more votes to show rating
add to favorites
×
Save as Personal and add changes to this tab that will be seen only by you. Learn more ›
×
You can save this tab as Personal to edit and correct it or add notes. All changes will be seen only by you. Learn more »
launch autoscroll
font size
0
reset
guitar tuner
edit
Autoscroll
slow
fast
+/-
esc
set tempo
stop
Author
Difficulty
Tabbers playing skills
intermediate
intermediate +
                                  Lai Lai Hei                                   


                                                                       Ensiferum
Bass



     W                   W                   W                 
G||-------------------|-------------------|-------------------|
D||-------------------|-------------------|-------------------|
A||-------------------|-------------------|-------------------|
E||-------------------|-------------------|-------------------|


  W                   W                   W                   W                 
-------------------|-------------------|-------------------|-------------------|
-------------------|-------------------|-------------------|-------------------|
-------------------|-------------------|-------------------|-------------------|
-------------------|-------------------|-------------------|-------------------|


  W                   W                   W                   W                 
-------------------|-------------------|-------------------|-------------------|
-------------------|-------------------|-------------------|-------------------|
-------------------|-------------------|-------------------|-------------------|
-------------------|-------------------|-------------------|-------------------|


  W                   W                   W                   W                 
-------------------|-------------------|-------------------|-------------------|
-------------------|-------------------|-------------------|-------------------|
-------------------|-------------------|-------------------|-------------------|
-------------------|-------------------|-------------------|-------------------|


  W                   W                   W                   W                 
-------------------|-------------------|-------------------|-------------------|
-------------------|-------------------|-------------------|-------------------|
-------------------|-------------------|-------------------|-------------------|
-------------------|-------------------|-------------------|-------------------|


  W                   W                   E  S S S S S S S S S S E  S S  

-------------------|-------------------|--------------------------------|
-------------------|-------------------|--------------------------------|
-------------------|-------------------|--2--2-2-2---2-2----------------|
-------------------|-------------------|-----------------2-2-2---2--2-2-|


  E  S S S S S S E  S S Q       E  S S S S S S S S S S E  S S  

-----------------------------|--------------------------------|
-----------------------------|--------------------------------|
--2--2-2-2---2-2--------2----|--2--2-2-2---2-2----------------|
-----------------2--2--------|-----------------2-2-2---2--2-2-|


  E  S S E  S S S  S S S Q       E  S S S S S S S S S S E  S S  

------------------------------|--------------------------------|
---------0--0-0-0s------------|--------------------------------|
--0--0-0-----------4-4-4-2----|--2--2-2-2---2-2----------------|
------------------------------|-----------------2-2-2---2--2-2-|


  E  S S S S S S E  S S Q       E  S S S S S S S S S S E  S S  

-----------------------------|--------------------------------|
-----------------------------|--------------------------------|
--2--2-2-2---2-2--------2----|--2--2-2-2---2-2----------------|
-----------------2--2--------|-----------------2-2-2---2--2-2-|


  E  S S E  S S E  S S Q       W                   W                 

----------------------------|-------------------|-------------------|
----------------------------|-------------------|-------------------|
---------0--0-0--------2----|-------------------|-------------------|
--3--3-3--------2--2-2------|-------------------|-------------------|


  E  S S E  S S S S E  E  S S    E  S S E  S S S S E  E  S S  

------------------------------|------------------------------|
------------------------------|------------------------------|
--2--2-2-2--2-2---------------|--2--2-2-2--2-2---------------|
----------------2-2-2--2--2-2-|----------------2-2-2--2--2-2-|


  E  S S E  S S S S E  E  S S    E  S S E  S S S S S S S S S S  

------------------------------|--------------------------------|
------------------------------|--------------------------------|
--2--2-2-2--2-2---------------|--2--2-2-2--2-2-0-0-0-0-2-2-2-2-|
----------------2-2-2--2--2-2-|--------------------------------|


  E  S S S S S S S S S S E  S S    E  S S S S S S E  S S Q     

--------------------------------|-----------------------------|
--------------------------------|-----------------------------|
--2--2-2-2---2-2----------------|--2--2-2-2---2-2--------2----|
-----------------2-2-2---2--2-2-|-----------------2--2--------|


  E  S S S S S S S S S S E  S S    E  S S E  S S S  S S S Q     
--------------------------------|------------------------------|
--------------------------------|---------0--0-0-0s------------|
--2--2-2-2---2-2----------------|--0--0-0-----------4-4-4-2----|
-----------------2-2-2---2--2-2-|------------------------------|


           ?                                             
  E  S S S S Q    E  Q       E  S S S S S S E  S S Q     

--------------------------|-----------------------------|
--------------------------|-----------------------------|
--2--2-2-2--------0--0----|--2--2-2-2---2-2--------2----|
-------------4------------|-----------------2--2--------|


             ?                                          
  E  S S S S Q    E  Q       E  S S E  S S E  S S Q     

--------------------------|----------------------------|
--------------------------|----------------------------|
--2--2-2-2--------0--0----|---------0--0-0--------2----|
-------------4------------|--3--3-3--------2--2-2------|


  E  S S S S S S S S S S E  S S    E  S S E  S S E  S S E  S S  

--------------------------------|------------------------------|
--------------------------------|------------------------------|
--2--2-2-2---2-2----------------|--2--2-2-0--0-0-2--2-2-2--2-2-|
-----------------2-2-2---2--2-2-|------------------------------|


  E  S S S S S S S S S S E  S S    E  S S E  S S E  S S E  S S  

--------------------------------|------------------------------|
--------------------------------|--0--0-0-2--2-2---------------|
--2--2-2-2---2-2----------------|----------------4--4-4-4--4-4-|
-----------------2-2-2---2--2-2-|------------------------------|


  E  S S S S S S S S S S E  S S    E  S S E  S S E  S S E  S S  

--------------------------------|------------------------------|
--------------------------------|------------------------------|
--2--2-2-2---2-2----------------|--2--2-2-0--0-0-2--2-2-2--2-2-|
-----------------2-2-2---2--2-2-|------------------------------|


  E  S S S S S S S S S S E  S S    Q    Q    H         

--------------------------------|---------------------|
--------------------------------|--0----2-------------|
--2--2-2-2---2-2----------------|------------4--------|
-----------------2-2-2---2--2-2-|---------------------|


  E  S S S S S S S S S S E  S S    E  S S E  S S E  S S E  S S  

--------------------------------|------------------------------|
--------------------------------|------------------------------|
--2--2-2-2---2-2----------------|--2--2-2-0--0-0-2--2-2-2--2-2-|
-----------------2-2-2---2--2-2-|------------------------------|


  E  S S S S S S S S S S E  S S    E  S S E  S S E  S S E  S S  

--------------------------------|------------------------------|
--------------------------------|--0--0-0-2--2-2---------------|
--2--2-2-2---2-2----------------|----------------4--4-4-4--4-4-|
-----------------2-2-2---2--2-2-|------------------------------|


  E  S S S S S S S S S S E  S S    E  S S E  S S E  S S E  S S  

--------------------------------|------------------------------|
--------------------------------|------------------------------|
--2--2-2-2---2-2----------------|--2--2-2-0--0-0-2--2-2-2--2-2-|
-----------------2-2-2---2--2-2-|------------------------------|


  E  S S S S S S S S S S E  S S    Q    Q    H         

--------------------------------|---------------------|
--------------------------------|--0----2-------------|
--2--2-2-2---2-2----------------|------------4--------|
-----------------2-2-2---2--2-2-|---------------------|


  E  S S S S S S S S S S E  S S    E  S S S S S S E  S S Q     

--------------------------------|-----------------------------|
--------------------------------|-----------------------------|
--2--2-2-2---2-2----------------|--2--2-2-2---2-2--------2----|
-----------------2-2-2---2--2-2-|-----------------2--2--------|


  E  S S S S S S S S S S E  S S    E  S S E  S S S  S S S Q     

--------------------------------|------------------------------|
--------------------------------|---------0--0-0-0s------------|
--2--2-2-2---2-2----------------|--0--0-0-----------4-4-4-2----|
-----------------2-2-2---2--2-2-|------------------------------|


           ?                                             
  E  S S S S Q    E  Q       E  S S S S S S E  S S Q     

--------------------------|-----------------------------|
--------------------------|-----------------------------|
--2--2-2-2--------0--0----|--2--2-2-2---2-2--------2----|
-------------4------------|-----------------2--2--------|


             ?                                          
  E  S S S S Q    E  Q       E  S S E  S S E  S S Q     

--------------------------|----------------------------|
--------------------------|----------------------------|
--2--2-2-2--------0--0----|---------0--0-0--------2----|
-------------4------------|--3--3-3--------2--2-2------|


  S T T T T T T T T T S. S S T T T T S T T T T E   
--------------------------------------------------|
--------------------------------------------------|
--2----------------------0-2-----------2---0---2--|
--------------------------------------------------|


  S T T T T T T E  T T T T E  T T T T E  E   

--------------------------------------------|
--------------------------------------------|
--5-5-5-5---5-5-0----------0--0-0-0-0-------|
-------------------4-4-4-4------------0--2--|


  S T T T T T T T T T S. S S T T T T S T T T T E   

--------------------------------------------------|
--------------------------------------------------|
--2----------------------0-2-----------2---0---2--|
--------------------------------------------------|


  S T T T T T T E  T T T T T T T T T T T T Q     

------------------------------------------------|
------------------------------------------------|
--5-5-5-5---5-5-0--------------------------2----|
-------------------4-4-4-4-5-5-5-5-2-2-2-2------|


  S T T T T T T T T T T S S S T T T T T T T T T T E   

-----------------------------------------------------|
-----------------------------------------------------|
--2-2-2-2---2-2-2-2-2-2-2-0-2-2-2-2---2-2-2---0---2--|
-----------------------------------------------------|


  S T T T T T T E  T T T T E  T T T T E  E   

--------------------------------------------|
--------------------------------------------|
--5-5-5-5---5-5-0----------0--0-0-0-0-------|
-------------------4-4-4-4------------0--2--|


  S T T T T T T T T T T S S S T T T T T T T T T T E   

-----------------------------------------------------|
-----------------------------------------------------|
--2-2-2-2---2-2-2-2-2-2-2-0-2-2-2-2---2-2-2---0---2--|
-----------------------------------------------------|


  S T T T T T T E  T T T T T T T T T T T T Q     

------------------------------------------------|
------------------------------------------------|
--5-5-5-5---5-5-0--------------------------2----|
-------------------4-4-4-4-5-5-5-5-2-2-2-2------|


  PM                                            
  T  T E  T T T T E  T T T T E  T T T T E  T T  

-----------------------------------------------|
-----------------------------------------------|
--2----2--2---2---2--2---0---0--0---2---2--2---|
-----------------------------------------------|


  E  T T T T E  T T T T T T T T T T T T Q     

---------------------------------------------|
---------------------------------------------|
--2--2-2-2-2-0--0-0-0-0-----------------2----|
------------------------2-2-2-2-2-2-2-2------|


  PM                                            
  T  T E  T T T T E  T T T T E  T T T T E  T T  

-----------------------------------------------|
-----------------------------------------------|
--2----2--2---2---2--2---0---0--0---2---2--2---|
-----------------------------------------------|


  Q    Q    T T T T T T T T Q       Q    Q    Q    Q     

---------------------------------|----------------------|
---------------------------------|----------------------|
--5----0--------------------2----|--2----5----0----5----|
------------2-2-2-2-2-2-2-2------|----------------------|


  T T T T T T T T T T T T T T T T T T T T T T T T T T T T T T T T  

------------------------------------------------------------------|
------------------------------------------------------------------|
------------------2-2-2-2-2-2-2-2-----------------2-2-2-2-2-2-2-2-|
--2-2-2-2-2-2-2-2-----------------2-2-2-2-2-2-2-2-----------------|


  Q    Q    Q    Q     

----------------------|
----------------------|
--2----5----0----5----|
----------------------|


  T T T T T T T T T T T T T T T T T T T T T T T T T T T T T T T T  

------------------------------------------------------------------|
------------------------------------------------------------------|
------------------2-2-2-2-2-2-2-2-----------------2-2-2-2-2-2-2-2-|
--2-2-2-2-2-2-2-2-----------------2-2-2-2-2-2-2-2-----------------|


  H        T T T T T T T T E  E     S. T E  E  S S S. T S. T S. T E   

---------------------------------|-----------------------------------|
---------------------------------|-----------------------------------|
--5------------------------0--0--|--2----------2-2-2--0-0--0-0--2-2--|
-----------4-4-4-4-4-4-4-4-------|-----2-2--2------------------------|


  S. T E  E  S S S. T S. T S T T E     S. T E  E  S S S. T S. T S. T E   

------------------------------------|-----------------------------------|
------------------------------------|-----------------------------------|
--2----------2-2-5--0-0--0-0-2---2--|--2----------2-2-2--0-0--0-0--2-2--|
-----2-2--2-------------------------|-----2-2--2------------------------|


  S. T E  E  S S S. T S. T S T T E   

------------------------------------|
------------------------------------|
--2----------2-2-5--0-0--0-0-2---2--|
-----2-2--2-------------------------|


  PM                                            
  T  T E  T T T T E  T T T T E  T T T T E  T T  

-----------------------------------------------|
-----------------------------------------------|
--2----2--2---2---2--2---0---0--0---2---2--2---|
-----------------------------------------------|


  E  T T T T E  T T T T T T T T T T T T Q     

---------------------------------------------|
---------------------------------------------|
--2--2-2-2-2-0--0-0-0-0-----------------2----|
------------------------2-2-2-2-2-2-2-2------|


  PM                                            
  T  T E  T T T T E  T T T T E  T T T T E  T T  

-----------------------------------------------|
-----------------------------------------------|
--2----2--2---2---2--2---0---0--0---2---2--2---|
-----------------------------------------------|


  Q    Q    T T T T T T T T Q       Q    Q    Q    Q     

---------------------------------|----------------------|
---------------------------------|----------------------|
--5----0--------------------2----|--2----5----0----5----|
------------2-2-2-2-2-2-2-2------|----------------------|


  T T T T T T T T T T T T T T T T T T T T T T T T T T T T T T T T  

------------------------------------------------------------------|
------------------------------------------------------------------|
------------------2-2-2-2-2-2-2-2-----------------2-2-2-2-2-2-2-2-|
--2-2-2-2-2-2-2-2-----------------2-2-2-2-2-2-2-2-----------------|


  Q    Q    Q    Q     

----------------------|
----------------------|
--2----5----0----5----|
----------------------|


  T T T T T T T T T T T T T T T T T T T T T T T T T T T T T T T T  

------------------------------------------------------------------|
------------------------------------------------------------------|
------------------2-2-2-2-2-2-2-2-----------------2-2-2-2-2-2-2-2-|
--2-2-2-2-2-2-2-2-----------------2-2-2-2-2-2-2-2-----------------|


  H        T T T T T T T T E  E     S. T E  E  S S S. T S. T S. T E   

---------------------------------|-----------------------------------|
---------------------------------|-----------------------------------|
--5------------------------0--0--|--2----------2-2-2--0-0--0-0--2-2--|
-----------4-4-4-4-4-4-4-4-------|-----2-2--2------------------------|


  S. T E  E  S S S. T S. T S T T E     S. T E  E  S S S. T S. T S. T E   

------------------------------------|-----------------------------------|
------------------------------------|-----------------------------------|
--2----------2-2-5--0-0--0-0-2---2--|--2----------2-2-2--0-0--0-0--2-2--|
-----2-2--2-------------------------|-----2-2--2------------------------|


  S. T E  E  S S S. T S. T S T T E   

------------------------------------|
------------------------------------|
--2----------2-2-5--0-0--0-0-2---2--|
-----2-2--2-------------------------|


  T T T T S T T T T T T S T T T T T T S T T T T T T S T T  

----------------------------------------------------------|
----------------------------------------------------------|
--2---2-2-2-2-2-2---2-2-2-2-2-2---2-2-2-2-2-2---2-2-2-2-2-|
----------------------------------------------------------|


  T T T T S T T T T T T S T T T T T T S T T T T T T S T T  

----------------------------------------------------------|
----------------------------------------------------------|
------------------------------0---0-0-0-0-0-0---0-0-0-0-0-|
--0---0-0-0-0-0-0---0-0-0-0-0-----------------------------|


  H        Q    Q       Q    Q    E  E  Q     

---------------------|-----------------------|
---------------------|-----------------------|
--2-------------0----|--5----0-------0--2----|
-----------0---------|------------2----------|


  T T T T S T T T T T T S T T T T T T S T T T T T T S T T  

----------------------------------------------------------|
----------------------------------------------------------|
--2---2-2-2-2-2-2---2-2-2-2-2-2---2-2-2-2-2-2---2-2-2-2-2-|
----------------------------------------------------------|


  T T T T S T T T T T T S T T T T T T S T T T T T T S T T  

----------------------------------------------------------|
----------------------------------------------------------|
------------------------------0---0-0-0-0-0-0---0-0-0-0-0-|
--0---0-0-0-0-0-0---0-0-0-0-0-----------------------------|


  H        Q    Q       T T T T T T T T T T T T T T T T E  E  Q     

---------------------|---------------------------------------------|
---------------------|---------------------------------------------|
--2-------------0----|--5-5-5-5-5-5-5-5-0-0-0-0-0-0-0-0----0--2----|
-----------0---------|----------------------------------2----------|


  E  S S S S E  S S S S S S E     S S S S S S E  S S S S E  E   

-------------------------------|-------------------------------|
-------------------------------|-------------------------------|
--2--2-2--------5-5-5-5-0-0-0--|--2-2-2-2----------------2--2--|
---------2-2-2-----------------|----------2-2-2--2-2-2-2-------|


  E  S S S S E  S S S S S S E     S S S S S S E  S S S S E  E   

-------------------------------|-------------------------------|
-------------------------------|-------------------------------|
--2--2-2--------5-5-5-5-0-0-0--|--2-2-2-2----------------2--2--|
---------2-2-2-----------------|----------2-2-2--2-2-2-2-------|


  E  S S S S E  S S S S S S E     S S S S S S E  S S S S E  E   

-------------------------------|-------------------------------|
-------------------------------|-------------------------------|
--2--2-2--------5-5-5-5-0-0-0--|--2-2-2-2----------------2--2--|
---------2-2-2-----------------|----------2-2-2--2-2-2-2-------|


  E  S S S S E  S S S S S S E     S S S S S S E  S S S S E  E   

-------------------------------|-------------------------------|
-------------------------------|-------------------------------|
--2--2-2--------5-5-5-5-0-0-0--|--2-2-2-2----------------2--2--|
---------2-2-2-----------------|----------2-2-2--2-2-2-2-------|


  S S S S H.              W                   S S S S H.            

-----------------------|-------------------|-----------------------|
-----------------------|-------------------|-----------------------|
--2-2-2----------------|-------------------|--2-2-2----------------|
-----------------------|-------------------|-----------------------|


  Q    Q    H           S S S H.           S    W                 

---------------------|-----------------------|-------------------|
---------------------|-----------------------|-------------------|
--5----7----0--------|--2-2-2----------------|-------------------|
---------------------|-----------------------|-------------------|


  S S S S H.              Q    Q    H           W                 

-----------------------|---------------------|-------------------|
-----------------------|---------------------|-------------------|
--2-2-2----------------|--5----7----0--------|-------------------|
-----------------------|---------------------|--2----------------|


  PM                                            
  T  T E  T T T T E  T T T T E  T T T T E  T T  

-----------------------------------------------|
-----------------------------------------------|
--2----2--2---2---2--2---0---0--0---2---2--2---|
-----------------------------------------------|


  E  T T T T E  T T T T T T T T T T T T Q     

---------------------------------------------|
---------------------------------------------|
--2--2-2-2-2-0--0-0-0-0-----------------2----|
------------------------2-2-2-2-2-2-2-2------|


  PM                                            
  T  T E  T T T T E  T T T T E  T T T T E  T T  

-----------------------------------------------|
-----------------------------------------------|
--2----2--2---2---2--2---0---0--0---2---2--2---|
-----------------------------------------------|


  Q    Q    T T T T T T T T Q       Q    Q    Q    Q     

---------------------------------|----------------------|
---------------------------------|----------------------|
--5----0--------------------2----|--2----5----0----5----|
------------2-2-2-2-2-2-2-2------|----------------------|


  T T T T T T T T T T T T T T T T T T T T T T T T T T T T T T T T  

------------------------------------------------------------------|
------------------------------------------------------------------|
------------------2-2-2-2-2-2-2-2-----------------2-2-2-2-2-2-2-2-|
--2-2-2-2-2-2-2-2-----------------2-2-2-2-2-2-2-2-----------------|


  Q    Q    Q    Q     

----------------------|
----------------------|
--2----5----0----5----|
----------------------|


  T T T T T T T T T T T T T T T T T T T T T T T T T T T T T T T T  

------------------------------------------------------------------|
------------------------------------------------------------------|
------------------2-2-2-2-2-2-2-2-----------------2-2-2-2-2-2-2-2-|
--2-2-2-2-2-2-2-2-----------------2-2-2-2-2-2-2-2-----------------|


  H        T T T T T T T T S E.   

---------------------------------|
---------------------------------|
--5------------------------0-----|
-----------4-4-4-4-4-4-4-4-------|


  T T T T S T T T T T T S T T T T T T S T T T T T T S T T  

----------------------------------------------------------|
----------------------------------------------------------|
--2---2-2-2-2-2-2---2-2-2-2-2-2---2-2-2-2-2-2---2-2-2-2-2-|
----------------------------------------------------------|


  T T T T S T T T T T T S T T T T T T S T T T T T T S T T  

----------------------------------------------------------|
----------------------------------------------------------|
------------------------------0---0-0-0-0-0-0---0-0-0-0-0-|
--0---0-0-0-0-0-0---0-0-0-0-0-----------------------------|


  H        Q    Q       Q    Q    E  E  Q     

---------------------|-----------------------|
---------------------|-----------------------|
--2-------------0----|--5----0-------0--2----|
-----------0---------|------------2----------|


  T T T T S T T T T T T S T T T T T T S T T T T T T S T T  

----------------------------------------------------------|
----------------------------------------------------------|
--2---2-2-2-2-2-2---2-2-2-2-2-2---2-2-2-2-2-2---2-2-2-2-2-|
----------------------------------------------------------|


  T T T T S T T T T T T S T T T T T T S T T T T T T S T T  

----------------------------------------------------------|
----------------------------------------------------------|
------------------------------0---0-0-0-0-0-0---0-0-0-0-0-|
--0---0-0-0-0-0-0---0-0-0-0-0-----------------------------|


  H        Q    Q       T T T T T T T T T T T T T T T T E  E  Q     

---------------------|---------------------------------------------|
---------------------|---------------------------------------------|
--2-------------0----|--5-5-5-5-5-5-5-5-0-0-0-0-0-0-0-0----0--2----|
-----------0---------|----------------------------------2----------|


  E  S S S S E  S S S S S S E     S S S S S S E  S S S S E  E   

-------------------------------|-------------------------------|
-------------------------------|-------------------------------|
--2--2-2--------5-5-5-5-0-0-0--|--2-2-2-2----------------2--2--|
---------2-2-2-----------------|----------2-2-2--2-2-2-2-------|


  E  S S S S E  S S S S S S E     S S S S S S E  S S S S E  E   

-------------------------------|-------------------------------|
-------------------------------|-------------------------------|
--2--2-2--------5-5-5-5-0-0-0--|--2-2-2-2----------------2--2--|
---------2-2-2-----------------|----------2-2-2--2-2-2-2-------|


  E  S S S S E  S S S S S S E     S S S S S S E  S S S S E  E   

-------------------------------|-------------------------------|
-------------------------------|-------------------------------|
--2--2-2--------5-5-5-5-0-0-0--|--2-2-2-2----------------2--2--|
---------2-2-2-----------------|----------2-2-2--2-2-2-2-------|


  E  S S S S E  S S S S S S E     S S S S S S E  S S S S E  E          

-------------------------------|-------------------------------|-----||
-------------------------------|-------------------------------|-----||
--2--2-2--------5-5-5-5-0-0-0--|--2-2-2-2----------------2--2--|-----||
---------2-2-2-----------------|----------2-2-2--2-2-2-2-------|-----||




Duration Legend
---------------
W - whole
H - half
Q - quarter
E - 8th
S - 16th
T - 32nd
X - 64th
. - note dotted
|-n-|  - n-tuplets


Tablature Legend
----------------
L - tied note
x - dead note
g - grace note
(n) - ghost note
> - accentuded note
NH - natural harmonic
AH - artificial harmonic
TH - tapped harmonic
SH - semi harmonic
PH - pitch harmonic
h - hammer on
p - pull off
b - bend
br - bendRelease
pb - preBend
pbr - preBendRelease
brb - bendReleaseBend
\n/ - tremolo bar dip
\n - tremolo bar dive
-/n - tremolo bar Release up
/n\ - tremolo bar inverted dip
/n - tremolo bar return
-\n - tremolo bar Release down
S - shift slide
s - legato slide
/ -  slide into from below or out of upwards
\ -  slide into from above or out of downwards
~ - vibrato
W - wide vibrato
tr - trill
TP - tremolo picking
T - tapping
S - slap
P - pop
< - fade in
^ - brush up
v - brush down

            
            
Suggest correction
Creating personal tab
Creating personal tab
You can edit any tab online and save it as your Personal.

You can edit, replace or remove any tab part or add personal notes – all changes will be seen only by you.

Personal tabs can be accessed anytime from any device, even offline.
Learn more »
Give kudos to tab author, rate the tab!
1 2 3 4 5
comments
print report bad tab
guest
You may want to rate the tab now too:
select rating
Wanna post a correction for this tab? Suggest correction