Oops, an error
Loading. Please wait.

Little Dreamer tab

version 2
version 2

Whole song

Interactive

4,305 views 3 this week
1 commentread comment
1 2 3 4 5
1 last vote to show rating
add to favorites
×
Save as Personal and add changes to this tab that will be seen only by you. Learn more ›
×
You can save this tab as Personal to edit and correct it or add notes. All changes will be seen only by you. Learn more »
launch autoscroll
font size
0
reset
how to read this tab
guitar tuner
edit
Autoscroll
slow
fast
+/-
esc
set tempo
stop
                                Little Dreamer                                  


                                                                       Ensiferum
Rhythm Guitar



     W                   W                   W                 
E||-------------------|-------------------|-------------------|
B||-------------------|-------------------|-------------------|
G||-------------------|--4----------------|-------------------|
D||--2----------------|--4----------------|--5----------------|
A||--2----------------|--2----------------|--5----------------|
E||--0----------------|-------------------|--3----------------|


  W                   H.           E  E     Q    E  E  Q    E  E   
-------------------|---------------------|------------------------|
-------------------|---------------------|------------------------|
--7----------------|---------------------|--4----------4----------|
--7----------------|--2------------------|--4----------4----------|
--5----------------|--2------------------|--2----2--2--2----2--2--|
-------------------|--0------------0--0--|------------------------|


  H.           E  E     H        H           W                 
---------------------|--------------------|-------------------|
---------------------|--------------------|-------------------|
---------------------|--7-----------------|-------------------|
--5------------------|--7--------9--------|--2----------------|
--5------------------|--5--------9--------|--2----------------|
--3------------3--3--|-----------7--------|--0----------------|


  H.           E  E     Q    E  E  Q    E  E     W                 
---------------------|------------------------|-------------------|
---------------------|------------------------|-------------------|
--4------------------|------------------------|--7----------------|
--4------------------|--5----------5----------|--7----------------|
--2------------2--2--|--5----------5----------|--5----------------|
---------------------|--3----3--3--3----3--3--|-------------------|


  H.           E  E     Q    E  E  Q    E  E     Q    E  E  Q    E  E   
---------------------|------------------------|------------------------|
---------------------|------------------------|------------------------|
---------------------|--4----------4----------|------------------------|
--2------------------|--4----------4----------|--5----------5----------|
--2------------------|--2----2--2--2----2--2--|--5----------5----------|
--0------------0--0--|------------------------|--3----3--3--3----3--3--|


  H        H             H        H           H        H         
--------------------||---------------------|--------------------|
--------------------||---------------------|--------------------|
--7-----------------||*-----------4--------|--5--------7--------|
--7--------9--------||*--2--------4--------|--5--------7--------|
--5--------9--------||---2--------2--------|--3--------5--------|
-----------7--------||---0-----------------|--------------------|


  H        H           H        H         3x  H        H         
--------------------|---------------------||--------------------|
--------------------|---------------------||--------------------|
-----------4--------|--7--------9--------*||-----------4--------|
--2--------4--------|--7--------9--------*||--2--------4--------|
--2--------2--------|--5--------7---------||--2--------2--------|
--0-----------------|---------------------||--0-----------------|


  H        H           H        H           H        H         
--------------------|--------------------|--------------------|
--------------------|--------------------|--------------------|
--5--------7--------|-----------4--------|--7--------5--------|
--5--------7--------|--2--------4--------|--7--------5--------|
--3--------5--------|--2--------2--------|--5--------3--------|
--------------------|--0-----------------|--------------------|


  W                   W                   W                   W                 
-------------------|-------------------|-------------------|-------------------|
-------------------|-------------------|-------------------|-------------------|
-------------------|--4----------------|-------------------|--7----------------|
--2----------------|--4----------------|--5----------------|--7----------------|
--2----------------|--2----------------|--5----------------|--5----------------|
--0----------------|-------------------|--3----------------|-------------------|


  W                   H.           E  E     W                 
-------------------|---------------------|-------------------|
-------------------|---------------------|-------------------|
-------------------|--4------------------|-------------------|
--2----------------|--4------------------|--5----------------|
--2----------------|--2------------------|--5----------------|
--0----------------|---------------0--2--|--3----------------|


  H        H           H.           E  E     H.           E  E   
--------------------|---------------------|---------------------|
--------------------|---------------------|---------------------|
--7-----------------|---------------------|--4------------------|
--7--------9--------|--2------------------|--4------------------|
--5--------9--------|--2------------------|--2------------------|
-----------7--------|--0------------0--0--|---------------0--2--|


  Q    E  E  Q    E  E     W                   H.           E  E   
------------------------|-------------------|---------------------|
------------------------|-------------------|---------------------|
------------------------|--7----------------|---------------------|
--5----------5----------|--7----------------|--2------------------|
--5----------5----------|--5----------------|--2------------------|
--3----3--3--3----3--3--|-------------------|--0------------0--0--|


  Q    E  E  Q    E  E     H.           E  E     H        H         
------------------------|---------------------|--------------------|
------------------------|---------------------|--------------------|
--4----------4----------|---------------------|--7-----------------|
--4----------4----------|--5------------------|--7--------9--------|
--2----2--2--2----2--2--|--5------------------|--5--------9--------|
------------------------|--3------------3--3--|-----------7--------|


    S S S S S S S S S S S S S S S S    S S S S S S S S S S S S S S S S  
|-----------------------------------|----------------------------------|
|-----------------------------------|----------------------------------|
|*----------------------------------|----------------------------------|
|*----------------------------------|----------------------------------|
|-----------------------------------|----------------------------------|
|---0-0-0-0-0-0-0-0-2-2-2-2-2-2-2-2-|--3-3-3-3-3-3-3-3-5-5-5-5-5-5-5-5-|


  S S S S S S S S S S S S S S S S    S S S S S S S S S S S S S S S S    
----------------------------------|-----------------------------------||
----------------------------------|-----------------------------------||
----------------------------------|----------------------------------*||
----------------------------------|----------------------------------*||
--2-2-2-2-2-2-2-2-----------------|-----------------------------------||
------------------5-5-5-5-5-5-5-5-|--3-3-3-3-3-3-3-3-2-2-2-2-2-2-2-2--||


  H        H           W                   S S S S S S S S S S S S S S S S  
--------------------|-------------------|----------------------------------|
--------------------|-------------------|----------------------------------|
-----------4--------|-------------------|----------------------------------|
--5--------4--------|--2----------------|----------------------------------|
--5--------2--------|--2----------------|------------------2-2-2-2-2-2-2-2-|
--3-----------------|--0----------------|--0-0-0-0-0-0-0-0-----------------|


  S S S S S S S S S S S S S S S S    H        H           H        H         
----------------------------------|--------------------|--------------------|
----------------------------------|--------------------|--------------------|
----------------------------------|-----------7--------|-----------4--------|
----------------------------------|--5--------7--------|--2--------4--------|
--3-3-3-3-3-3-3-3-5-5-5-5-5-5-5-5-|--5--------5--------|--2--------2--------|
----------------------------------|--3-----------------|--0-----------------|


  S S S S S S S S S S S S S S S S    S S S S S S S S S S S S S S S S  
----------------------------------|----------------------------------|
----------------------------------|----------------------------------|
----------------------------------|----------------------------------|
----------------------------------|----------------------------------|
------------------2-2-2-2-2-2-2-2-|--3-3-3-3-3-3-3-3-5-5-5-5-5-5-5-5-|
--0-0-0-0-0-0-0-0-----------------|----------------------------------|


  H        H           H        H           S S S S S S S S S S S S S S S S  
--------------------|--------------------|----------------------------------|
--------------------|--------------------|----------------------------------|
-----------7--------|-----------4--------|----------------------------------|
--5--------7--------|--2--------4--------|----------------------------------|
--5--------5--------|--2--------2--------|------------------2-2-2-2-2-2-2-2-|
--3-----------------|--0-----------------|--0-0-0-0-0-0-0-0-----------------|


  S S S S S S S S S S S S S S S S    S S S S S S S S S S S S S S S S  
----------------------------------|----------------------------------|
----------------------------------|----------------------------------|
----------------------------------|----------------------------------|
----------------------------------|----------------------------------|
--3-3-3-3-3-3-3-3-5-5-5-5-5-5-5-5-|------------------5-5-5-5-5-5-5-5-|
----------------------------------|--3-3-3-3-3-3-3-3-----------------|


  S S S S S S S S S S S S S S S S    S S S S S S S S S S S S S S S S  
----------------------------------|----------------------------------|
----------------------------------|----------------------------------|
----------------------------------|----------------------------------|
----------------------------------|----------------------------------|
------------------2-2-2-2-2-2-2-2-|------------------2-2-2-2-2-2-2-2-|
--0-0-0-0-0-0-0-0-----------------|--0-0-0-0-0-0-0-0-----------------|


  S S S S S S S S S S S S S S S S    H        H           H        H         
----------------------------------|--------------------|--------------------|
----------------------------------|--------------------|--------------------|
----------------------------------|-----------7--------|-----------4--------|
----------------------------------|--5--------7--------|--2--------4--------|
--3-3-3-3-3-3-3-3-5-5-5-5-5-5-5-5-|--5--------5--------|--2--------2--------|
----------------------------------|--3-----------------|--0-----------------|


    H        H           H        Q    Q       H        H         
|---------------------|---------------------|--------------------|
|---------------------|---------------------|--------------------|
|*--------------------|-----------7----7----|--------------------|
|*--2--------5--------|--4--------7----7----|--2--------5--------|
|---2--------5--------|--5--------5----5----|--2--------5--------|
|---0--------3--------|--2--------5----5----|--0--------3--------|


  H        Q    Q         H        H           H        H         
----------------------||--------------------|--------------------|
----------------------||--------------------|--------------------|
-----------7----7----*||--------------------|-----------7--------|
--4--------7----7----*||--2--------5--------|--7--------7--------|
--5--------5----5-----||--2--------5--------|--7--------5--------|
--2-------------------||--0--------3--------|--5-----------------|


  H        H           H        H           Q    E  E  Q    E  E   
--------------------|--------------------|------------------------|
--------------------|--------------------|------------------------|
-----------5--------|-----------4--------|------------------------|
--2--------5--------|--7--------4--------|--2----------5----------|
--2--------3--------|--7--------2--------|--2----------5----------|
--0-----------------|--5-----------------|--0----0--0--3----3--3--|


  Q    E  E  Q    Q       Q    E  E  H           H        H         
-----------------------|----------------------|--------------------|
-----------------------|----------------------|--------------------|
-------------7----7----|-------------5--------|-----------4--------|
--7----------7----7----|--2----------5--------|--7--------4--------|
--7----------5----5----|--2----------3--------|--7--------2--------|
--5----5--5------------|--0----0--0-----------|--5-----------------|


  S S S S S S S S S S S S S S S S    S S S S S S S S S S S S S S S S  
----------------------------------|----------------------------------|
----------------------------------|----------------------------------|
----------------------------------|----------------------------------|
----------------------------------|----------------------------------|
------------------2-2-2-2-2-2-2-2-|--3-3-3-3-3-3-3-3-5-5-5-5-5-5-5-5-|
--0-0-0-0-0-0-0-0-----------------|----------------------------------|


  H        H           H        H           S S S S S S S S S S S S S S S S  
--------------------|--------------------|----------------------------------|
--------------------|--------------------|----------------------------------|
-----------7--------|-----------4--------|----------------------------------|
--5--------7--------|--2--------4--------|----------------------------------|
--5--------5--------|--2--------2--------|------------------2-2-2-2-2-2-2-2-|
--3-----------------|--0-----------------|--0-0-0-0-0-0-0-0-----------------|


  S S S S S S S S S S S S S S S S    H        H           H        H         
----------------------------------|--------------------|--------------------|
----------------------------------|--------------------|--------------------|
----------------------------------|-----------7--------|-----------4--------|
----------------------------------|--5--------7--------|--2--------4--------|
--3-3-3-3-3-3-3-3-5-5-5-5-5-5-5-5-|--5--------5--------|--2--------2--------|
----------------------------------|--3-----------------|--0-----------------|


  S S S S S S S S S S S S S S S S    S S S S S S S S S S S S S S S S  
----------------------------------|----------------------------------|
----------------------------------|----------------------------------|
----------------------------------|----------------------------------|
----------------------------------|----------------------------------|
------------------2-2-2-2-2-2-2-2-|--3-3-3-3-3-3-3-3-5-5-5-5-5-5-5-5-|
--0-0-0-0-0-0-0-0-----------------|----------------------------------|


  S S S S S S S S S S S S S S S S    S S S S S S S S S S S S S S S S  
----------------------------------|----------------------------------|
----------------------------------|----------------------------------|
----------------------------------|----------------------------------|
----------------------------------|----------------------------------|
------------------5-5-5-5-5-5-5-5-|------------------2-2-2-2-2-2-2-2-|
--3-3-3-3-3-3-3-3-----------------|--0-0-0-0-0-0-0-0-----------------|


  S S S S S S S S S S S S S S S S    S S S S S S S S S S S S S S S S  
----------------------------------|----------------------------------|
----------------------------------|----------------------------------|
----------------------------------|----------------------------------|
----------------------------------|----------------------------------|
------------------2-2-2-2-2-2-2-2-|--3-3-3-3-3-3-3-3-5-5-5-5-5-5-5-5-|
--0-0-0-0-0-0-0-0-----------------|----------------------------------|


  H        H           H        H                                             
--------------------|--------------------|-----------|-----------|-----------|
--------------------|--------------------|-----------|-----------|-----------|
-----------7--------|-----------4--------|-----------|-----------|-----------|
--5--------7--------|--2--------4--------|-----------|-----------|-----------|
--5--------5--------|--2--------2--------|-----------|-----------|-----------|
--3-----------------|--0-----------------|-----------|-----------|-----------|


-----------|-----------|-----------|-----------|-----------|-----------|
-----------|-----------|-----------|-----------|-----------|-----------|
-----------|-----------|-----------|-----------|-----------|-----------|
-----------|-----------|-----------|-----------|-----------|-----------|
-----------|-----------|-----------|-----------|-----------|-----------|
-----------|-----------|-----------|-----------|-----------|-----------|


-----------|-----------|-----------|-----------|-----------|-----------|
-----------|-----------|-----------|-----------|-----------|-----------|
-----------|-----------|-----------|-----------|-----------|-----------|
-----------|-----------|-----------|-----------|-----------|-----------|
-----------|-----------|-----------|-----------|-----------|-----------|
-----------|-----------|-----------|-----------|-----------|-----------|


              H         H              S S S S S S S S S S S S S S S S  
-----------|----------------------||-----------------------------------|
-----------|----------------------||-----------------------------------|
-----------|----------------------||*----------------------------------|
-----------|-----------14S--------||*----------------------------------|
-----------|-----------14S--------||-----------------------------------|
-----------|-----------12S--------||---0-0-0-0-0-0-0-0-2-2-2-2-2-2-2-2-|


  S S S S S S S S S S S S S S S S    S S S S S S S S S S S S S S S S  
----------------------------------|----------------------------------|
----------------------------------|----------------------------------|
----------------------------------|----------------------------------|
----------------------------------|----------------------------------|
----------------------------------|--2-2-2-2-2-2-2-2-----------------|
--3-3-3-3-3-3-3-3-5-5-5-5-5-5-5-5-|------------------5-5-5-5-5-5-5-5-|


  S S S S S S S S S S S S S S S S      H        H           W                 
-----------------------------------||--------------------|-------------------|
-----------------------------------||--------------------|-------------------|
----------------------------------*||-----------4--------|-------------------|
----------------------------------*||--5--------4--------|--2----------------|
-----------------------------------||--5--------2--------|--2----------------|
--3-3-3-3-3-3-3-3-2-2-2-2-2-2-2-2--||--3-----------------|--0----------------|


  W                   S S S S S S S S S S S S S S S S  
-------------------|----------------------------------|
-------------------|----------------------------------|
-------------------|----------------------------------|
--L----------------|----------------------------------|
--L----------------|------------------2-2-2-2-2-2-2-2-|
--L----------------|--0-0-0-0-0-0-0-0-----------------|


  S S S S S S S S S S S S S S S S    H        H           H        H         
----------------------------------|--------------------|--------------------|
----------------------------------|--------------------|--------------------|
----------------------------------|-----------7--------|-----------4--------|
----------------------------------|--5--------7--------|--2--------4--------|
--3-3-3-3-3-3-3-3-5-5-5-5-5-5-5-5-|--5--------5--------|--2--------2--------|
----------------------------------|--3-----------------|--0-----------------|


  S S S S S S S S S S S S S S S S    S S S S S S S S S S S S S S S S  
----------------------------------|----------------------------------|
----------------------------------|----------------------------------|
----------------------------------|----------------------------------|
----------------------------------|----------------------------------|
------------------2-2-2-2-2-2-2-2-|--3-3-3-3-3-3-3-3-5-5-5-5-5-5-5-5-|
--0-0-0-0-0-0-0-0-----------------|----------------------------------|


  H        H           H        H           S S S S S S S S S S S S S S S S  
--------------------|--------------------|----------------------------------|
--------------------|--------------------|----------------------------------|
-----------7--------|-----------4--------|----------------------------------|
--5--------7--------|--2--------4--------|----------------------------------|
--5--------5--------|--2--------2--------|------------------2-2-2-2-2-2-2-2-|
--3-----------------|--0-----------------|--0-0-0-0-0-0-0-0-----------------|


  S S S S S S S S S S S S S S S S    S S S S S S S S S S S S S S S S  
----------------------------------|----------------------------------|
----------------------------------|----------------------------------|
----------------------------------|----------------------------------|
----------------------------------|----------------------------------|
--3-3-3-3-3-3-3-3-5-5-5-5-5-5-5-5-|------------------5-5-5-5-5-5-5-5-|
----------------------------------|--3-3-3-3-3-3-3-3-----------------|


  S S S S S S S S S S S S S S S S    S S S S S S S S S S S S S S S S  
----------------------------------|----------------------------------|
----------------------------------|----------------------------------|
----------------------------------|----------------------------------|
----------------------------------|----------------------------------|
------------------2-2-2-2-2-2-2-2-|------------------2-2-2-2-2-2-2-2-|
--0-0-0-0-0-0-0-0-----------------|--0-0-0-0-0-0-0-0-----------------|


  S S S S S S S S S S S S S S S S    H        H           H        H         
----------------------------------|--------------------|--------------------|
----------------------------------|--------------------|--------------------|
----------------------------------|-----------7--------|-----------4--------|
----------------------------------|--5--------7--------|--2--------4--------|
--3-3-3-3-3-3-3-3-5-5-5-5-5-5-5-5-|--5--------5--------|--2--------2--------|
----------------------------------|--3-----------------|--0-----------------|


    H        H           H        H           H        H         
|---------------------|--------------------|--------------------|
|---------------------|--------------------|--------------------|
|*-----------4--------|-----------4--------|-----------7--------|
|*--2--------4--------|--2--------4--------|--5--------7--------|
|---2--------2--------|--2--------2--------|--5--------5--------|
|---0-----------------|--0-----------------|--3-----------------|


  H        H             H        H           H        H         
---------------------||--------------------|--------------------|
---------------------||--------------------|--------------------|
--------------------*||-----------7--------|--------------------|
--5--------4--------*||--5--------7--------|--5--------4--------|
--5--------5---------||--5--------5--------|--5--------5--------|
--3--------2---------||--3-----------------|--3--------2--------|


  H        H           H        H           H        H         
--------------------|--------------------|--------------------|
--------------------|--------------------|--------------------|
-----------4--------|-----------4--------|-----------7--------|
--2--------4--------|--2--------4--------|--5--------7--------|
--2--------2--------|--2--------2--------|--5--------5--------|
--0-----------------|--0-----------------|--3-----------------|


  H        H           H        H           H        H         
--------------------|--------------------|--------------------|
--------------------|--------------------|--------------------|
--------------------|-----------4--------|-----------4--------|
--5--------4--------|--2--------4--------|--2--------4--------|
--5--------5--------|--2--------2--------|--2--------2--------|
--3--------2--------|--0-----------------|--0-----------------|


  H        H           H        H           H        H         
--------------------|--------------------|--------------------|
--------------------|--------------------|--------------------|
-----------7--------|-----------4--------|-----------4--------|
--5--------7--------|--5--------4--------|--2--------4--------|
--5--------5--------|--5--------2--------|--2--------2--------|
--3-----------------|--3-----------------|--0-----------------|


  H        H           H        H           H        H         
--------------------|--------------------|--------------------|
--------------------|--------------------|--------------------|
--5--------7--------|-----------4--------|--7--------9--------|
--5--------7--------|--2--------4--------|--7--------9--------|
--3--------5--------|--2--------2--------|--5--------7--------|
--------------------|--0-----------------|--------------------|


  H        H           H        H           H        H         
--------------------|--------------------|--------------------|
--------------------|--------------------|--------------------|
-----------4--------|--5--------7--------|-----------4--------|
--2--------4--------|--5--------7--------|--2--------4--------|
--2--------2--------|--3--------5--------|--2--------2--------|
--0-----------------|--------------------|--0-----------------|


  H        H           E  S S S S S S E  S S S S S S  
--------------------|--------------------------------|
--------------------|--------------------------------|
--7--------9--------|--------------------------------|
--7--------9--------|-----------------4--------------|
--5--------7--------|--2--------------2--2-2-2-2-2-2-|
--------------------|--0--0-0-0-0-0-0----------------|


  E  S S S S S S E  S S S S S S    E  S S S S S S E  S S S S S S  
--------------------------------|--------------------------------|
--------------------------------|--------------------------------|
--------------------------------|--------------------------------|
--5--------------7--------------|-----------------4--------------|
--3--3-3-3-3-3-3-5--5-5-5-5-5-5-|--2--------------2--2-2-2-2-2-2-|
--------------------------------|--0--0-0-0-0-0-0----------------|


  E  S S S S S S Q    Q       E  S S S S S S E  S S S S S S  
---------------------------|--------------------------------|
---------------------------|--------------------------------|
---------------------------|--------------------------------|
--7--------------9----9----|-----------------4--------------|
--5--5-5-5-5-5-5-7----7----|--2--------------2--2-2-2-2-2-2-|
---------------------------|--0--0-0-0-0-0-0----------------|


  E  S S S S S S E  S S S S S S    E  S S S S S S E  S S S S S S  
--------------------------------|--------------------------------|
--------------------------------|--------------------------------|
--------------------------------|--------------------------------|
--5--------------7--------------|-----------------4--------------|
--3--3-3-3-3-3-3-5--5-5-5-5-5-5-|--2--------------2--2-2-2-2-2-2-|
--------------------------------|--0--0-0-0-0-0-0----------------|


  E  S S S S S S Q    Q      
---------------------------||
---------------------------||
---------------------------||
--7--------------9----9----||
--5--5-5-5-5-5-5-7----7----||
---------------------------||







      
Lead Guitar



     Q    Q    Q     Q       Q     Q    Q     Q        H        Q    Q     
E||-----------------------|------------------------|----------------------|
B||-----------------------|------------------------|----------------------|
G||-----------------------|------------------------|----------------------|
D||-----------------------|------------------------|----------------------|
A||--7---------7----10----|--9----------9----12----|--10--------9----7----|
E||-------7---------------|-------10---------------|----------------------|


  H         H           Q    Q    Q     Q       Q     Q    Q     Q     
---------------------|-----------------------|------------------------|
---------------------|-----------------------|------------------------|
---------------------|-----------------------|------------------------|
---------------------|-----------------------|------------------------|
--9--------12--------|--7---------7----10----|--9----------9----12----|
---------------------|-------7---------------|-------10---------------|


   H        Q    Q       H         H           Q    Q    Q     Q     
----------------------|---------------------|-----------------------|
----------------------|---------------------|-----------------------|
----------------------|---------------------|-----------------------|
----------------------|---------------------|-----------------------|
--10--------9----7----|--9------------------|--7---------7----10----|
----------------------|-----------10--------|-------7---------------|


  Q     Q    Q     Q        H        Q    Q       H         H         
------------------------|----------------------|---------------------|
------------------------|----------------------|---------------------|
------------------------|----------------------|---------------------|
------------------------|----------------------|---------------------|
--9----------9----12----|--10--------9----7----|--9--------12--------|
-------10---------------|----------------------|---------------------|


  Q    Q    Q     Q       Q     Q    Q     Q        H        Q    Q     
-----------------------|------------------------|----------------------|
-----------------------|------------------------|----------------------|
-----------------------|------------------------|----------------------|
-----------------------|------------------------|----------------------|
--7---------7----10----|--9----------9----12----|--10--------9----7----|
-------7---------------|-------10---------------|----------------------|


  H         H             E.  S E  E  E  E  Q       E.  S E  E  S S E  Q     
---------------------||---------------7----------|--------------------------|
---------------------||------------8-----7--7----|--8---7-------------------|
---------------------||*--9---7-9----------------|--------9--7--9-7---------|
---------------------||*-------------------------|------------------9--9----|
--9------------------||--------------------------|--------------------------|
-----------10--------||--------------------------|--------------------------|


                                      |--3--|              
  E.  S E  E  E  E  Q        E.  S E  S  S  S Q    Q     3x
--------------7----------|-------7-----------------------||
-----------8-----7--7----|--10-----8--7h-8p-7------------||
--9---7-9----------------|--------------------9----9----*||
-------------------------|------------------------------*||
-------------------------|-------------------------------||
-------------------------|-------------------------------||


  E.  S E  E  E  E  Q       E.  S E  E  S S E  Q       E.  S E  E  E  E  Q     
--------------7----------|--------------------------|--------------7----------|
-----------8-----7--7----|--8---7-------------------|-----------8-----7--7----|
--9---7-9----------------|--------9--7--9-7---------|--9---7-9----------------|
-------------------------|------------------9--9----|-------------------------|
-------------------------|--------------------------|-------------------------|
-------------------------|--------------------------|-------------------------|


   E.  S E  E  H           Q    Q    Q     Q       Q     Q    Q     Q     
-------7----------------|-----------------------|------------------------|
--10-----8--7-----------|-----------------------|------------------------|
---------------9--------|-----------------------|------------------------|
------------------------|-----------------------|------------------------|
------------------------|--7---------7----10----|--9----------9----12----|
------------------------|-------7---------------|-------10---------------|


   H        Q    Q       H         H           Q    Q    Q     Q     
----------------------|---------------------|-----------------------|
----------------------|---------------------|-----------------------|
----------------------|---------------------|-----------------------|
----------------------|---------------------|-----------------------|
--10--------9----7----|--9--------12--------|--7---------7----10----|
----------------------|---------------------|-------7---------------|


  Q     Q    Q     Q        H        Q    Q       H         H         
------------------------|----------------------|---------------------|
------------------------|----------------------|---------------------|
------------------------|----------------------|---------------------|
------------------------|----------------------|---------------------|
--9----------9----12----|--10--------9----7----|--9------------------|
-------10---------------|----------------------|-----------10--------|


  Q    Q    Q     Q       Q     Q    Q     Q        H        Q    Q     
-----------------------|------------------------|----------------------|
-----------------------|------------------------|----------------------|
-----------------------|------------------------|----------------------|
-----------------------|------------------------|----------------------|
--7---------7----10----|--9----------9----12----|--10--------9----7----|
-------7---------------|-------10---------------|----------------------|


  H         H           Q    Q    Q     Q       Q     Q    Q     Q     
---------------------|-----------------------|------------------------|
---------------------|-----------------------|------------------------|
---------------------|-----------------------|------------------------|
---------------------|-----------------------|------------------------|
--9--------12--------|--7---------7----10----|--9----------9----12----|
---------------------|-------7---------------|-------10---------------|


   H        Q    Q       H         H         
----------------------|---------------------|
----------------------|---------------------|
----------------------|---------------------|
----------------------|---------------------|
--10--------9----7----|--9------------------|
----------------------|-----------10--------|


    S S S S S S S S S S S S S S S S     S  S  S  S S S S S S S S S S S S S  
|-----------------------------------|--------------------------------------|
|-----------------------------------|--------------------------------------|
|*----------------------------------|--------------------------------------|
|*----------------------------------|--------------9-9-9-9-----------------|
|---7-7-7-7-7-7-7-7-9-9-9-9-9-9-9-9-|--10-10-10-10---------9-9-9-9-9-9-9-9-|
|-----------------------------------|--------------------------------------|


  S S S S  S  S  S  S S S S S S S S S    S S S S  S  S  S  S S S S S S S S S    
--------------------------------------|---------------------------------------||
--------------------------------------|---------------------------------------||
--------------------------------------|--------------------------------------*||
--9-9-9-9---------------------7-7-7-7-|--9-9-9-9---------------------7-7-7-7-*||
----------10-10-10-10-9-9-9-9---------|----------10-10-10-10-9-9-9-9----------||
--------------------------------------|---------------------------------------||


  Q    S  S  S  S H           W                 
---------------------------|-------------------|
---------------------------|-------------------|
---------------------------|-------------------|
--9----7h-9p-7-------------|-------------------|
---------------10-9--------|--7----------------|
---------------------------|-------------------|


  S S S S S S S S S S S S  S  S S S     S  S  S  S S S S S S S S S  S  S  S  S  
------------------------------------|------------------------------------------|
------------------------------------|------------------------------------------|
------------------------------------|------------------------------------------|
------------------------------------|------------------------------------------|
----------7-7-7-7-9-9-9-9-------9-9-|--10-10-10-10-7-7-7-7-9-9-9-9-------------|
--0-0-0-0-----------------10-10-----|------------------------------10-10-10-10-|


   Q    Q    Q    Q        Q    Q    S  S  S  S Q     
-----------------------|-----------------------------|
-----------------------|-----------------------------|
-----------------------|-----------------------------|
--------9----7---------|--------9----7h-9p-7---------|
--10--------------9----|--10-----------------10-9----|
-----------------------|-----------------------------|


  S S S S S S S S S S S S S S S S     S  S  S  S S S S S S S S S  S  S  S  S  
----------------------------------|------------------------------------------|
----------------------------------|------------------------------------------|
----------------------------------|------------------------------------------|
----------------------------------|------------------------------------------|
----------7-7-7-7---------9-9-9-9-|--10-10-10-10-7-7-7-7-9-9-9-9-------------|
--0-0-0-0---------7-7-7-7---------|------------------------------10-10-10-10-|


   Q    Q    Q    Q        Q    Q    Q    Q     
-----------------------|-----------------------|
-----------------------|-----------------------|
-----------------------|-----------------------|
--------9----7---------|--------9----7---------|
--10--------------9----|--10--------------9----|
-----------------------|-----------------------|


  S S S S S S S S S S S S S S S S     S  S  S  S S S S S S S S S  S  S  S  S  
----------------------------------|------------------------------------------|
----------------------------------|------------------------------------------|
----------------------------------|------------------------------------------|
----------------------------------|------------------------------------------|
----------7-7-7-7---------9-9-9-9-|--10-10-10-10-7-7-7-7-9-9-9-9-------------|
--0-0-0-0---------7-7-7-7---------|------------------------------10-10-10-10-|


   S  S  S  S S S S S S S S S S S S S     S  S  S  S S S S S S S S S S S S S  
--------------------------------------|--------------------------------------|
--------------------------------------|--------------------------------------|
--------------------------------------|--------------------------------------|
--------------9-9-9-9-7-7-7-7---------|--------------9-9-9-9-7-7-7-7---------|
--10-10-10-10-----------------9-9-9-9-|--10-10-10-10-----------------9-9-9-9-|
--------------------------------------|--------------------------------------|


  S S S S S S S S S S S S S S S S     S  S  S  S S S S S S S S S  S  S  S  S  
----------------------------------|------------------------------------------|
----------------------------------|------------------------------------------|
----------------------------------|------------------------------------------|
----------------------------------|------------------------------------------|
----------7-7-7-7---------9-9-9-9-|--10-10-10-10-7-7-7-7-9-9-9-9-------------|
--0-0-0-0---------7-7-7-7---------|------------------------------10-10-10-10-|


   Q    Q    Q    Q        Q    Q    Q    Q         H        H         
-----------------------|-----------------------||---------------------|
-----------------------|-----------------------||---------------------|
-----------------------|-----------------------||*--------------------|
--------9----7---------|--------9----7---------||*--2--------5--------|
--10--------------9----|--10--------------9----||---2--------5--------|
-----------------------|-----------------------||---0--------3--------|


  H        Q    Q       H        H           H        Q    Q       
---------------------|--------------------|----------------------||
---------------------|--------------------|----------------------||
-----------7----7----|--------------------|-----------7----7----*||
--4--------7----7----|--2--------5--------|--4--------7----7----*||
--5--------5----5----|--2--------5--------|--5--------5----5-----||
--2--------5----5----|--0--------3--------|--2-------------------||


  Q    E  E   H           Q    E   E  Q     Q       Q    E  E   Q    Q     
-----------------------|-------------------------|------------------------|
-----------------------|-------------------------|------------------------|
-----------------------|-------------------------|------------------------|
-----------------------|--7----7-----------------|-------------------9----|
--7----7--9--10--------|----------10--9----------|--7----7--9--10---------|
-----------------------|-------------------10----|------------------------|


  Q    E   E   Q    Q       Q    E  E   H           Q    E   E  Q     Q     
-------------------------|-----------------------|-------------------------|
-------------------------|-----------------------|-------------------------|
-------------------------|-----------------------|-------------------------|
--7----7-----------------|-----------------------|--7----7-----------------|
----------10--------9----|--7----7--9--10--------|----------10--9----------|
--------------10---------|-----------------------|-------------------10----|


  Q    E  E   Q    Q       Q    E   E   Q    Q     
------------------------|-------------------------|
------------------------|-------------------------|
------------------------|-------------------------|
-------------------9----|--7----7-----------------|
--7----7--9--10---------|----------10--------9----|
------------------------|--------------10---------|


  S S S S S S S S S S S S  S  S S S     S  S  S  S S S S S S S S S  S  S  S  S  
------------------------------------|------------------------------------------|
------------------------------------|------------------------------------------|
------------------------------------|------------------------------------------|
------------------------------------|------------------------------------------|
----------7-7-7-7-9-9-9-9-------9-9-|--10-10-10-10-7-7-7-7-9-9-9-9-------------|
--0-0-0-0-----------------10-10-----|------------------------------10-10-10-10-|


   Q    Q    Q    Q        Q    Q    S  S  S  S Q     
-----------------------|-----------------------------|
-----------------------|-----------------------------|
-----------------------|-----------------------------|
--------9----7---------|--------9----7h-9p-7---------|
--10--------------9----|--10-----------------10-9----|
-----------------------|-----------------------------|


  S S S S S S S S S S S S S S S S     S  S  S  S S S S S S S S S  S  S  S  S  
----------------------------------|------------------------------------------|
----------------------------------|------------------------------------------|
----------------------------------|------------------------------------------|
----------------------------------|------------------------------------------|
----------7-7-7-7---------9-9-9-9-|--10-10-10-10-7-7-7-7-9-9-9-9-------------|
--0-0-0-0---------7-7-7-7---------|------------------------------10-10-10-10-|


   Q    Q    Q    Q        Q    Q    Q    Q     
-----------------------|-----------------------|
-----------------------|-----------------------|
-----------------------|-----------------------|
--------9----7---------|--------9----7---------|
--10--------------9----|--10--------------9----|
-----------------------|-----------------------|


  S S S S S S S S S S S S S S S S     S  S  S  S S S S S S S S S  S  S  S  S  
----------------------------------|------------------------------------------|
----------------------------------|------------------------------------------|
----------------------------------|------------------------------------------|
----------------------------------|------------------------------------------|
----------7-7-7-7---------9-9-9-9-|--10-10-10-10-7-7-7-7-9-9-9-9-------------|
--0-0-0-0---------7-7-7-7---------|------------------------------10-10-10-10-|


   S  S  S  S S S S S S S S S S S S S     S  S  S  S S S S S S S S S S S S S  
--------------------------------------|--------------------------------------|
--------------------------------------|--------------------------------------|
--------------------------------------|--------------------------------------|
--------------9-9-9-9-7-7-7-7---------|--------------9-9-9-9-7-7-7-7---------|
--10-10-10-10-----------------9-9-9-9-|--10-10-10-10-----------------9-9-9-9-|
--------------------------------------|--------------------------------------|


  S S S S S S S S S S S S S S S S     S  S  S  S S S S S S S S S  S  S  S  S  
----------------------------------|------------------------------------------|
----------------------------------|------------------------------------------|
----------------------------------|------------------------------------------|
----------------------------------|------------------------------------------|
----------7-7-7-7---------9-9-9-9-|--10-10-10-10-7-7-7-7-9-9-9-9-------------|
--0-0-0-0---------7-7-7-7---------|------------------------------10-10-10-10-|


   Q    Q    Q    Q        Q    Q    Q    Q                                     
-----------------------|-----------------------|-------|-------|-------|-------|
-----------------------|-----------------------|-------|-------|-------|-------|
-----------------------|-----------------------|-------|-------|-------|-------|
--------9----7---------|--------9----7---------|-------|-------|-------|-------|
--10--------------9----|--10--------------9----|-------|-------|-------|-------|
-----------------------|-----------------------|-------|-------|-------|-------|


-------|-------|-------|-------|-------|-------|-------|-------|-------|-------|
-------|-------|-------|-------|-------|-------|-------|-------|-------|-------|
-------|-------|-------|-------|-------|-------|-------|-------|-------|-------|
-------|-------|-------|-------|-------|-------|-------|-------|-------|-------|
-------|-------|-------|-------|-------|-------|-------|-------|-------|-------|
-------|-------|-------|-------|-------|-------|-------|-------|-------|-------|


                  H         H              S S S S S S S S S S S S S S S S  
-------|-------|----------------------||-----------------------------------|
-------|-------|----------------------||-----------------------------------|
-------|-------|----------------------||*----------------------------------|
-------|-------|-----------14S--------||*----------------------------------|
-------|-------|-----------14S--------||---7-7-7-7-7-7-7-7-9-9-9-9-9-9-9-9-|
-------|-------|-----------12S--------||-----------------------------------|


   S  S  S  S S S S S S S S S S S S S    S S S S  S  S  S  S S S S S S S S S  
--------------------------------------|--------------------------------------|
--------------------------------------|--------------------------------------|
--------------------------------------|--------------------------------------|
--------------9-9-9-9-----------------|--9-9-9-9---------------------7-7-7-7-|
--10-10-10-10---------9-9-9-9-9-9-9-9-|----------10-10-10-10-9-9-9-9---------|
--------------------------------------|--------------------------------------|


  S S S S  S  S  S  S S S S S S S S S      Q    S  S  S  S H         
---------------------------------------||---------------------------|
---------------------------------------||---------------------------|
--------------------------------------*||---------------------------|
--9-9-9-9---------------------7-7-7-7-*||--9----7h-9p-7-------------|
----------10-10-10-10-9-9-9-9----------||---------------10-9--------|
---------------------------------------||---------------------------|


  W                   W                   S S S S S S S S S S S S  S  S S S  
-------------------|-------------------|------------------------------------|
-------------------|-------------------|------------------------------------|
-------------------|-------------------|------------------------------------|
-------------------|-------------------|------------------------------------|
--7----------------|--L----------------|----------7-7-7-7-9-9-9-9-------9-9-|
-------------------|-------------------|--0-0-0-0-----------------10-10-----|


   S  S  S  S S S S S S S S S  S  S  S  S     Q    Q    Q    Q     
------------------------------------------|-----------------------|
------------------------------------------|-----------------------|
------------------------------------------|-----------------------|
------------------------------------------|--------9----7---------|
--10-10-10-10-7-7-7-7-9-9-9-9-------------|--10--------------9----|
------------------------------10-10-10-10-|-----------------------|


   Q    Q    S  S  S  S Q       S S S S S S S S S S S S S S S S  
-----------------------------|----------------------------------|
-----------------------------|----------------------------------|
-----------------------------|----------------------------------|
--------9----7h-9p-7---------|----------------------------------|
--10-----------------10-9----|----------7-7-7-7---------9-9-9-9-|
-----------------------------|--0-0-0-0---------7-7-7-7---------|


   S  S  S  S S S S S S S S S  S  S  S  S     Q    Q    Q    Q     
------------------------------------------|-----------------------|
------------------------------------------|-----------------------|
------------------------------------------|-----------------------|
------------------------------------------|--------9----7---------|
--10-10-10-10-7-7-7-7-9-9-9-9-------------|--10--------------9----|
------------------------------10-10-10-10-|-----------------------|


   Q    Q    Q    Q       S S S S S S S S S S S S S S S S  
-----------------------|----------------------------------|
-----------------------|----------------------------------|
-----------------------|----------------------------------|
--------9----7---------|----------------------------------|
--10--------------9----|----------7-7-7-7---------9-9-9-9-|
-----------------------|--0-0-0-0---------7-7-7-7---------|


   S  S  S  S S S S S S S S S  S  S  S  S  
------------------------------------------|
------------------------------------------|
------------------------------------------|
------------------------------------------|
--10-10-10-10-7-7-7-7-9-9-9-9-------------|
------------------------------10-10-10-10-|


   S  S  S  S S S S S S S S S S S S S     S  S  S  S S S S S S S S S S S S S  
--------------------------------------|--------------------------------------|
--------------------------------------|--------------------------------------|
--------------------------------------|--------------------------------------|
--------------9-9-9-9-7-7-7-7---------|--------------9-9-9-9-7-7-7-7---------|
--10-10-10-10-----------------9-9-9-9-|--10-10-10-10-----------------9-9-9-9-|
--------------------------------------|--------------------------------------|


  S S S S S S S S S S S S S S S S     S  S  S  S S S S S S S S S  S  S  S  S  
----------------------------------|------------------------------------------|
----------------------------------|------------------------------------------|
----------------------------------|------------------------------------------|
----------------------------------|------------------------------------------|
----------7-7-7-7---------9-9-9-9-|--10-10-10-10-7-7-7-7-9-9-9-9-------------|
--0-0-0-0---------7-7-7-7---------|------------------------------10-10-10-10-|


   Q    Q    Q    Q        Q    Q    Q    Q     
-----------------------|-----------------------|
-----------------------|-----------------------|
-----------------------|-----------------------|
--------9----7---------|--------9----7---------|
--10--------------9----|--10--------------9----|
-----------------------|-----------------------|


     E  E  E   E   E   E   E   E      E  E  E   E   E   E   E   E   
|---------------------------------|--------------------------------|
|-------------12--10----------10--|------------12--10----------10--|
|*--12--9--9----------11--11------|--12--9--9----------11--11------|
|*--------------------------------|--------------------------------|
|---------------------------------|--------------------------------|
|---------------------------------|--------------------------------|


   E  E  E   E   E   E   E   E      E  E  E   E   Q     Q       
--------------------------------|-----------------------------||
------------12--10----------10--|------------12--10-----------||
--12--9--9----------11--11------|--12--9--9------------11----*||
--------------------------------|----------------------------*||
--------------------------------|-----------------------------||
--------------------------------|-----------------------------||


   E  E  E   E   E   E   E   E      E  E  E   E   Q     Q     
--------------------------------|----------------------------|
------------12--10----------10--|------------12--10----------|
--12--9--9----------11--11------|--12--9--9------------11----|
--------------------------------|----------------------------|
--------------------------------|----------------------------|
--------------------------------|----------------------------|


   E  E  E   E   E   E   E   E      E  E  E   E   E   E   E   E   
--------------------------------|--------------------------------|
------------12--10----------10--|------------12--10----------10--|
--12--9--9----------11--11------|--12--9--9----------11--11------|
--------------------------------|--------------------------------|
--------------------------------|--------------------------------|
--------------------------------|--------------------------------|


   E  E  E   E   E  E  E   E      E  E  E   E   Q    Q     
------------------------------|---------------------------|
--12--8--8--12--10--7--7--10--|--12--8--8--12--10----7----|
------------------------------|---------------------------|
------------------------------|---------------------------|
------------------------------|---------------------------|
------------------------------|---------------------------|


   E  E  E   E   E   E   E   E      E  E  E   E   E   E   E   E   
--------------------------------|--------------------------------|
------------12--10----------10--|------------12--10----------10--|
--12--9--9----------11--11------|--12--9--9----------11--11------|
--------------------------------|--------------------------------|
--------------------------------|--------------------------------|
--------------------------------|--------------------------------|


   E  E  E   E   E  E  E   E      E  E  E   E   Q     Q     
------------------------------|----------------------------|
--12--8--8--12--10--7--7--10--|----------------------10----|
------------------------------|--12--9--9--12--11----------|
------------------------------|----------------------------|
------------------------------|----------------------------|
------------------------------|----------------------------|


  E.  S E  E  E  E  Q       E.  S E  E  S S E  Q       E.  S E  E  E  E  Q     
--------------7----------|--------------------------|--------------7----------|
-----------8-----7--7----|--8---7-------------------|-----------8-----7--7----|
--9---7-9----------------|--------9--7--9-7---------|--9---7-9----------------|
-------------------------|------------------9--9----|-------------------------|
-------------------------|--------------------------|-------------------------|
-------------------------|--------------------------|-------------------------|


   Q     E  E  S  S S  S  S  S S  S    E.  S E  E  E  E  Q     
------------------------------------|--------------7----------|
--10b----8--7-----------------------|-----------8-----7--7----|
---------------9----9-11-12-11-9----|--9---7-9----------------|
-----------------12--------------12-|-------------------------|
------------------------------------|-------------------------|
------------------------------------|-------------------------|


  E.  S E  E  S S E  Q       E.  S E  E  E  E  Q        E.  S E  E  Q    Q     
--------------------------|--------------7----------|-------7-----------------|
--8---7-------------------|-----------8-----7--7----|--10-----8--7------------|
--------9--7--9-7---------|--9---7-9----------------|---------------9----9----|
------------------9--9----|-------------------------|-------------------------|
--------------------------|-------------------------|-------------------------|
--------------------------|-------------------------|-------------------------|


  E.  S E  E  E  E  Q       E.  S E  E  S S E  Q       E.  S E  E  E  E  Q     
--------------7----------|--------------------------|--------------7----------|
-----------8-----7--7----|--8---7-------------------|-----------8-----7--7----|
--9---7-9----------------|--------9--7--9-7---------|--9---7-9----------------|
-------------------------|------------------9--9----|-------------------------|
-------------------------|--------------------------|-------------------------|
-------------------------|--------------------------|-------------------------|


   E.  S E  E  Q    Q       E.  S E  E  E  E  Q       E.  S E  E  S S E  Q     
-------7-----------------|--------------7----------|--------------------------|
--10-----8--7------------|-----------8-----7--7----|--8---7-------------------|
---------------9----9----|--9---7-9----------------|--------9--7--9-7---------|
-------------------------|-------------------------|------------------9--9----|
-------------------------|-------------------------|--------------------------|
-------------------------|-------------------------|--------------------------|


  E.  S E  E  E  E  Q        E.  S E  E  Q    Q      
--------------7----------|-------7-----------------||
-----------8-----7--7----|--10-----8--7------------||
--9---7-9----------------|---------------9----9----||
-------------------------|-------------------------||
-------------------------|-------------------------||
-------------------------|-------------------------||


Duration Legend
---------------
W - whole
H - half
Q - quarter
E - 8th
S - 16th
T - 32nd
X - 64th
. - note dotted
|-n-|  - n-tuplets


Tablature Legend
----------------
L - tied note
x - dead note
g - grace note
(n) - ghost note
> - accentuded note
NH - natural harmonic
AH - artificial harmonic
TH - tapped harmonic
SH - semi harmonic
PH - pitch harmonic
h - hammer on
p - pull off
b - bend
br - bendRelease
pb - preBend
pbr - preBendRelease
brb - bendReleaseBend
\n/ - tremolo bar dip
\n - tremolo bar dive
-/n - tremolo bar Release up
/n\ - tremolo bar inverted dip
/n - tremolo bar return
-\n - tremolo bar Release down
S - shift slide
s - legato slide
/ -  slide into from below or out of upwards
\ -  slide into from above or out of downwards
~ - vibrato
W - wide vibrato
tr - trill
TP - tremolo picking
T - tapping
S - slap
P - pop
< - fade in
^ - brush up
v - brush down

            
            
Suggest correction
Creating personal tab
Creating personal tab
You can edit any tab online and save it as your Personal.

You can edit, replace or remove any tab part or add personal notes – all changes will be seen only by you.

Personal tabs can be accessed anytime from any device, even offline.
Learn more »
Give kudos to tab author, rate the tab!
1 2 3 4 5
comments
print report bad tab
1 comment total.
0 reply
djGentoo 125 Mar 28, 2009 07:45 AM

The main lead (the one just before the verse) is PERFECT like this.

guest
You may want to rate the tab now too:
select rating
Wanna post a correction for this tab? Suggest correction