Oops, an error
Loading. Please wait.

Lost In Despair tab

version 1
version 1

Whole song

Interactive

3,305 views 3 this week
no commentswrite comment
1 2 3 4 5
2 more votes to show rating
add to favorites
×
Save as Personal and add changes to this tab that will be seen only by you. Learn more ›
×
You can save this tab as Personal to edit and correct it or add notes. All changes will be seen only by you. Learn more »
launch autoscroll
font size
0
reset
how to read this tab
guitar tuner
edit
Autoscroll
slow
fast
+/-
esc
set tempo
stop
                                Lost In Despair                                 


                                                                       Ensiferum
Rhythm Guitar



      ^                      ^                      ^                    
      Q    Q    Q    Q       Q    Q    Q    Q       Q    Q    Q    Q     
E||--------0----5----0----|-------0----5----0----|-------0----5----0----|
B||-----------------------|--3-------------------|----------------------|
G||*--2-------------------|--2-------------------|--2-------------------|
D||*--2-------------------|----------------------|--2-------------------|
A||-----------------------|----------------------|----------------------|
E||-----------------------|----------------------|----------------------|


  ^                         ^                      ^                    
  Q    Q    Q    Q          Q    Q    Q    Q       Q    Q    Q    Q     
------------0----------||--------0----5----0----|-------0----5----0----|
-------0---------0-----||-----------------------|--3-------------------|
----------------------*||*--2-------------------|--2-------------------|
--2-------------------*||*--2-------------------|----------------------|
--2--------------------||-----------------------|----------------------|
-----------------------||-----------------------|----------------------|


  ^                      ^                             PM PM             
  Q    Q    Q    Q       Q    Q    Q    Q         Q    E  E  E  E  Q     
-------0----5----0----|------------0----------||------------------------|
----------------------|-------0---------0-----||------------------------|
--2-------------------|----------------------*||------------------------|
--2-------------------|--2-------------------*||------------------------|
----------------------|--2--------------------||--7----------5--7--7----|
----------------------|-----------------------||--5----5--5--3--5--5----|


                            PM PM                   PM PM            
  H        H           Q    E  E  Q    Q       Q    E  E  Q    Q     
--------------------|-----------------------|-----------------------|
--------------------|-----------------------|-----------------------|
--------------------|-----------------------|-----------------------|
--------------------|--5---------------5----|------------------4----|
--3--------3--------|--3----3--3--5----3----|--2----------5----2----|
--1--------1--------|-------------3---------|--0----0--0--3---------|


       PM PM                                         PM PM            
  Q    E  E  E  E  Q       H        H           Q    E  E  Q    Q     
------------------------|--------------------|-----------------------|
------------------------|--------------------|-----------------------|
------------------------|--------------------|-----------------------|
------------------------|--------------------|--5---------------5----|
--7----------5--7--7----|--3--------3--------|--3----3--3--5----3----|
--5----5--5--3--5--5----|--1--------1--------|-------------3---------|


       PM PM                   PM PM                             PM PM  
  Q    E  E  Q    Q       Q    E  E  E  E  Q       H        Q    E  E   
-----------------------|------------------------|----------------------|
-----------------------|------------------------|----------------------|
-----------------------|------------------------|----------------------|
------------------4----|------------------------|----------------------|
--2----------5----2----|--7----------5--7--7----|--3--------3----------|
--0----0--0--3---------|--5----5--5--3--5--5----|--1--------1----1--1--|


       PM PM                   PM PM                   PM PM             
  Q    E  E  Q    Q       Q    E  E  Q    Q       Q    E  E  E  E  Q     
-----------------------|-----------------------|------------------------|
-----------------------|-----------------------|------------------------|
-----------------------|-----------------------|------------------------|
--5---------------5----|------------------4----|------------------------|
--3----3--3--5----3----|--2----------5----2----|--7----------5--7--7----|
-------------3---------|--0----0--0--3---------|--5----5--5--3--5--5----|


                PM PM         PM PM                   PM PM            
  H        Q    E  E     Q    E  E  Q    Q       Q    E  E  Q    Q     
----------------------|-----------------------|-----------------------|
----------------------|-----------------------|-----------------------|
----------------------|-----------------------|-----------------------|
----------------------|--5---------------5----|------------------4----|
--3--------3----------|--3----3--3--5----3----|--2----------5----2----|
--1--------1----1--1--|-------------3---------|--0----0--0--3---------|


   Q     Q     E   E   Q        H         Q     Q       H          Q     Q     
----------------------------|------------------------|------------------------|
----------------------------|------------------------|------------------------|
----------------------------|------------------------|--9~--------------------|
--14----14----12--14--14----|-------------9----12----|------------12----10----|
----------------------------|--12~-------------------|------------------------|
----------------------------|------------------------|------------------------|


  Q      Q      Q     E  E      Q     Q     E   E   Q     
----------------------------|----------------------------|
----------------------------|----------------------------|
----------------------------|----------------------------|
--9~----12~----10----10--9--|--14----14----12--14--14----|
----------------------------|----------------------------|
----------------------------|----------------------------|


   H          E  E  E   E     H          Q     Q       H          Q     E  E   
---------------------------|------------------------|-------------------------|
---------------------------|------------------------|-------------------------|
--10~----------------------|--9~--------------------|-------------------------|
-------------10--9--7--10--|------------12----10----|--9~--------10----10--9--|
---------------------------|------------------------|-------------------------|
---------------------------|------------------------|-------------------------|


  ^                      ^                      ^                    
  Q    Q    Q    Q       Q    Q    Q    Q       Q    Q    Q    Q     
-------0----5----0----|-------0----5----0----|-------0----5----0----|
----------------------|--3-------------------|----------------------|
--2-------------------|--2-------------------|--2-------------------|
--2-------------------|----------------------|--2-------------------|
----------------------|----------------------|----------------------|
----------------------|----------------------|----------------------|


  ^                      ^                      ^                    
  Q    Q    Q    Q       Q    Q    Q    Q       Q    Q    Q    Q     
------------0---------|-------0----5----0----|-------0----5----0----|
-------0---------0----|----------------------|--3-------------------|
----------------------|--2-------------------|--2-------------------|
--2-------------------|--2-------------------|----------------------|
--2-------------------|----------------------|----------------------|
----------------------|----------------------|----------------------|


  ^                      ^                           PM PM             
  Q    Q    Q    Q       Q    Q    Q    Q       Q    E  E  E  E  Q     
-------0----5----0----|------------0---------|------------------------|
----------------------|-------0---------0----|------------------------|
--2-------------------|----------------------|------------------------|
--2-------------------|--2-------------------|------------------------|
----------------------|--2-------------------|--7----------5--7--7----|
----------------------|----------------------|--5----5--5--3--5--5----|


                            PM PM                   PM PM            
  H        H           Q    E  E  Q    Q       Q    E  E  Q    Q     
--------------------|-----------------------|-----------------------|
--------------------|-----------------------|-----------------------|
--------------------|-----------------------|-----------------------|
--------------------|--5---------------5----|------------------4----|
--3--------3--------|--3----3--3--5----3----|--2----------5----2----|
--1--------1--------|-------------3---------|--0----0--0--3---------|


       PM PM                                         PM PM            
  Q    E  E  E  E  Q       H        H           Q    E  E  Q    Q     
------------------------|--------------------|-----------------------|
------------------------|--------------------|-----------------------|
------------------------|--------------------|-----------------------|
------------------------|--------------------|--5---------------5----|
--7----------5--7--7----|--3--------3--------|--3----3--3--5----3----|
--5----5--5--3--5--5----|--1--------1--------|-------------3---------|


       PM PM                   PM PM                             PM PM  
  Q    E  E  Q    Q       Q    E  E  E  E  Q       H        Q    E  E   
-----------------------|------------------------|----------------------|
-----------------------|------------------------|----------------------|
-----------------------|------------------------|----------------------|
------------------4----|------------------------|----------------------|
--2----------5----2----|--7----------5--7--7----|--3--------3----------|
--0----0--0--3---------|--5----5--5--3--5--5----|--1--------1----1--1--|


       PM PM                   PM PM                   PM PM             
  Q    E  E  Q    Q       Q    E  E  Q    Q       Q    E  E  E  E  Q     
-----------------------|-----------------------|------------------------|
-----------------------|-----------------------|------------------------|
-----------------------|-----------------------|------------------------|
--5---------------5----|------------------4----|------------------------|
--3----3--3--5----3----|--2----------5----2----|--7----------5--7--7----|
-------------3---------|--0----0--0--3---------|--5----5--5--3--5--5----|


                PM PM         PM PM                   PM PM            
  H        Q    E  E     Q    E  E  Q    Q       Q    E  E  Q    Q     
----------------------|-----------------------|-----------------------|
----------------------|-----------------------|-----------------------|
----------------------|-----------------------|-----------------------|
----------------------|--5---------------5----|------------------4----|
--3--------3----------|--3----3--3--5----3----|--2----------5----2----|
--1--------1----1--1--|-------------3---------|--0----0--0--3---------|


       PM PM      PM PM         PM PM      PM PM         PM PM      PM PM  
  Q    E  E  Q    E  E     Q    E  E  Q    E  E     Q    E  E  Q    E  E   
------------------------|------------------------|------------------------|
------------------------|------------------------|------------------------|
------------------------|------------------------|------------------------|
------------------------|------------------------|------------------------|
--3----------2----------|------------------------|--3----------2----------|
-------0--0-------0--0--|--5----0--0--5----0--0--|-------0--0-------0--0--|


       PM PM                  PM PM      PM PM         PM PM      PM PM  
  Q    E  E  H           Q    E  E  Q    E  E     Q    E  E  Q    E  E   
----------------------|------------------------|------------------------|
----------------------|------------------------|------------------------|
----------------------|------------------------|------------------------|
----------------------|--3----------2----------|------------------------|
-------------7--------|-------0--0-------0--0--|--5----------5----------|
--5----0--0--5--------|------------------------|-------3--3-------3--3--|


       PM PM      PM PM                                                
  Q    E  E  Q    E  E     H.           Q       Q    E  E  Q    E  E   
------------------------|--------------------|--0----0--0--0----0--0--|
------------------------|--------------------|--1----1--1--0----0--0--|
------------------------|--------------------|--2----2--2--0----0--0--|
------------------------|--------------------|--2----2--2--2----2--2--|
--3----------2----------|--7-----------------|--0----0--0--2----2--2--|
-------0--0-------0--0--|--5-----------------|-------------0----0--0--|


  Q    Q    Q    E  E     Q    E  E  Q    E  E     Q    Q    Q    E  E   
--0----0----0----0--0--|--0----0--0--0----0--0--|--0----0----0----0--0--|
--1----1----1----0--0--|--1----1--1--0----0--0--|--1----1----1----0--0--|
--2----2----2----0--0--|--2----2--2--0----0--0--|--2----2----2----0--0--|
--2----2----2----2--2--|--2----2--2--2----2--2--|--2----2----2----2--2--|
--0----0----0----2--2--|--0----0--0--2----2--2--|--0----0----0----2--2--|
-----------------0--0--|-------------0----0--0--|-----------------0--0--|


  Q    E  E  Q    E  E     Q    E  E  Q    E  E     Q    E  E  Q    E  E   
--0----0--0--0----0--0--|--0----0--0--0----0--0--|--0----0--0--0----0--0--|
--1----1--1--0----0--0--|--1----1--1--0----0--0--|--1----1--1--0----0--0--|
--2----2--2--0----0--0--|--2----2--2--0----0--0--|--2----2--2--0----0--0--|
--2----2--2--2----2--2--|--2----2--2--2----2--2--|--2----2--2--2----2--2--|
--0----0--0--2----2--2--|--0----0--0--2----2--2--|--0----0--0--2----2--2--|
-------------0----0--0--|-------------0----0--0--|-------------0----0--0--|


  H        E  Q    E     H        H           W                 
--0-------------------|--------------------|-------------------|
--1-------------------|--------------------|-------------------|
--2-------------------|--------------------|-------------------|
--2-------------------|--------------------|-------------------|
--0--------7--5----2--|--7--------2--------|--7----------------|
-----------5--3----0--|--5--------0--------|--5----------------|


  H        H           W                   H        H         
--------------------|-------------------|--------------------|
--------------------|-------------------|--------------------|
--------------------|-------------------|--------------------|
--------------------|-------------------|--------------------|
--7--------2--------|--7----------------|--7--------5--------|
--5--------0--------|--5----------------|--5--------3--------|


  H        H           H        H           W                 
--------------------|--------------------|-------------------|
--------------------|--------------------|-------------------|
--------------------|--------------------|-------------------|
--5-----------------|--------------------|-------------------|
--3--------5--------|--7--------2--------|--7----------------|
-----------3--------|--5--------0--------|--5----------------|


       PM PM PM   PM PM          PM PM      PM PM         PM PM      PM PM  
  Q    E  E  Q    E  E     E  E  E  E  Q    E  E     Q    E  E  Q    E  E   
------------------------|-------------------------|------------------------|
------------------------|-------------------------|------------------------|
------------------------|-------------------------|------------------------|
------------------------|-----5-------------------|--7----------2----------|
--7----------7----------|--5--3--------2----------|--5----5--5--0----0--0--|
--5----5--5--5----5--5--|--3-----3--3--0----0--0--|------------------------|


               PM PM         PM PM PM   PM PM          PM PM      PM PM  
  H.           E  E     Q    E  E  Q    E  E     E  E  E  E  Q    E  E   
---------------------|------------------------|-------------------------|
---------------------|------------------------|-------------------------|
---------------------|------------------------|-------------------------|
---------------------|------------------------|-----5-------------------|
--5------------------|--7----------7----------|--5--3--------2----------|
--3------------3--3--|--5----5--5--5----5--5--|--3-----3--3--0----0--0--|


       PM PM      PM PM                                                   
  Q    E  E  Q    E  E     H        E  E  E  E     E  E  E  E  Q    Q     
------------------------|-----------------------|------------------------|
------------------------|-----------------------|------------------------|
------------------------|-----------------------|------------------------|
--7----------2----------|-----------------------|------------------------|
--5----5--5--0----0--0--|--2--------L-----------|--5-----------7---------|
------------------------|--0--------L--8--7--5--|--3--5-----5--5---------|


           PM                  PM PM                          PM PM  
  E  E  E  E  H           Q    E  E  H           H.           E  E   
-----------------------|----------------------|---------------------|
-----------------------|----------------------|---------------------|
-----------------------|----------------------|---------------------|
-----5-----------------|--7-------------------|---------------------|
--5--3--------2--------|--5----5--5-----------|--5------------------|
--3--------3--0--------|----------------------|--3------------3--3--|


                                    PM                  PM PM            
  E  E  E  E  Q    Q       E  E  E  E  H           Q    E  E  Q    Q     
------------------------|-----------------------|-----------------------|
------------------------|-----------------------|-----------------------|
------------------------|-----------------------|-----------------------|
------------------------|-----5-----------------|--7--------------------|
--5-----------7---------|--5--3--------2--------|--5----5--5-------7----|
--3--5-----5--5---------|--3--------3--0--------|------------------5----|


                           PM PM                                  
  W                   Q    E  E  E  E  Q       H        H         
-------------------|------------------------|--------------------|
-------------------|------------------------|--------------------|
-------------------|------------------------|--------------------|
-------------------|------------------------|--------------------|
--2----------------|--7----------5--7--7----|--3--------3--------|
--0----------------|--5----5--5--3--5--5----|--1--------1--------|


       PM PM                   PM PM                   PM PM             
  Q    E  E  Q    Q       Q    E  E  Q    Q       Q    E  E  E  E  Q     
-----------------------|-----------------------|------------------------|
-----------------------|-----------------------|------------------------|
-----------------------|-----------------------|------------------------|
--5---------------5----|------------------4----|------------------------|
--3----3--3--5----3----|--2----------5----2----|--7----------5--7--7----|
-------------3---------|--0----0--0--3---------|--5----5--5--3--5--5----|


                            PM PM                   PM PM            
  H        H           Q    E  E  Q    Q       Q    E  E  Q    Q     
--------------------|-----------------------|-----------------------|
--------------------|-----------------------|-----------------------|
--------------------|-----------------------|-----------------------|
--------------------|--5---------------5----|------------------4----|
--3--------3--------|--3----3--3--5----3----|--2----------5----2----|
--1--------1--------|-------------3---------|--0----0--0--3---------|


  Q    Q    E  E  Q       H        E  E  Q       Q    Q    Q    Q     
--5----5----3--5-------|--5--------5----------|--5-------------------|
--5--------------------|--6-----------6-------|--5----5----3---------|
-----------------------|----------------------|----------------------|
-----------------------|----------------------|----------------------|
-----------------------|----------------------|----------------------|
-----------------------|----------------------|----------------------|


  H        E  E  Q       Q    Q    E  E  Q       H        E  E  Q     
--3--------3--0-------|--5----5----3--5-------|--5--------5-----7----|
--0-------------------|--5--------------------|--6-----------6--5----|
----------------------|-----------------------|----------------------|
----------------------|-----------------------|----------------------|
----------------------|-----------------------|----------------------|
----------------------|-----------------------|----------------------|


                                                     PM PM      PM PM  
  Q.     E  E  E  Q       E  Q.     H           Q    E  E  Q    E  E   
--5---------3--0-------|--3------------------|------------------------|
--5--------------------|--3------------------|------------------------|
-----------------------|---------------------|------------------------|
-----------------------|---------------------|------------------------|
-----------------------|---------------------|--3----------2----------|
-----------------------|---------------------|-------0--0-------0--0--|


       PM PM      PM PM         PM PM      PM PM         PM PM           
  Q    E  E  Q    E  E     Q    E  E  Q    E  E     Q    E  E  H         
------------------------|------------------------|----------------------|
------------------------|------------------------|----------------------|
------------------------|------------------------|----------------------|
------------------------|------------------------|----------------------|
------------------------|--3----------2----------|-------------7--------|
--5----0--0--5----0--0--|-------0--0-------0--0--|--5----0--0--5--------|


       PM PM      PM PM         PM PM      PM PM         PM PM      PM PM  
  Q    E  E  Q    E  E     Q    E  E  Q    E  E     Q    E  E  Q    E  E   
------------------------|------------------------|------------------------|
------------------------|------------------------|------------------------|
------------------------|------------------------|------------------------|
--3----------2----------|------------------------|------------------------|
-------0--0-------0--0--|--5----------5----------|--3----------2----------|
------------------------|-------3--3-------3--3--|-------0--0-------0--0--|


  H.           Q       Q    E  E  Q    E  E     Q    Q    Q    E  E   
--------------------|--0----0--0--0----0--0--|--0----0----0----0--0--|
--------------------|--1----1--1--0----0--0--|--1----1----1----0--0--|
--------------------|--2----2--2--0----0--0--|--2----2----2----0--0--|
--------------------|--2----2--2--2----2--2--|--2----2----2----2--2--|
--7-----------------|--0----0--0--2----2--2--|--0----0----0----2--2--|
--5-----------------|-------------0----0--0--|-----------------0--0--|


                              PM PM PM PM PM                             
  Q    E  E  Q    E  E     E  E  E  E  E  E  E  E     H        H         
--0----0--0--0----0--0--|--0-----------------------|--------------------|
--1----1--1--0----0--0--|--1-----------------------|--------------------|
--2----2--2--0----0--0--|--2-----------------------|--------------------|
--2----2--2--2----2--2--|--2-----------------------|--------------------|
--0----0--0--2----2--2--|--0--7--7--7--7--7--7--7--|--7--------5--------|
-------------0----0--0--|-----5--5--5--5--5--5--5--|--5--------3--------|


  H        H           H        H           W                 
--------------------|--------------------|-------------------|
--------------------|--------------------|-------------------|
--------------------|--------------------|-------------------|
--5-----------------|--------------------|-------------------|
--3--------5--------|--7--------2--------|--7----------------|
-----------3--------|--5--------0--------|--5----------------|


  H        H           W                   H        H         
--------------------|-------------------|--------------------|
--------------------|-------------------|--------------------|
--------------------|-------------------|--------------------|
--------------------|-------------------|--------------------|
--7--------2--------|--7----------------|--7--------2--------|
--5--------0--------|--5----------------|--5--------0--------|


  W                   H        H           H        H         
-------------------|--------------------|--------------------|
-------------------|--------------------|--------------------|
-------------------|--------------------|--------------------|
-------------------|--------------------|--5-----------------|
--7----------------|--7--------5--------|--3--------5--------|
--5----------------|--5--------3--------|-----------3--------|


                                                PM PM PM   PM PM  
  H        H           W                   Q    E  E  Q    E  E   
--------------------|-------------------|------------------------|
--------------------|-------------------|------------------------|
--------------------|-------------------|------------------------|
--------------------|-------------------|------------------------|
--7--------2--------|--7----------------|--7----------7----------|
--5--------0--------|--5----------------|--5----5--5--5----5--5--|


        PM PM      PM PM         PM PM      PM PM                 PM PM  
  E  E  E  E  Q    E  E     Q    E  E  Q    E  E     H.           E  E   
-------------------------|------------------------|---------------------|
-------------------------|------------------------|---------------------|
-------------------------|------------------------|---------------------|
-----5-------------------|--7----------2----------|---------------------|
--5--3--------2----------|--5----5--5--0----0--0--|--5------------------|
--3-----3--3--0----0--0--|------------------------|--3------------3--3--|


       PM PM PM   PM PM          PM PM      PM PM         PM PM      PM PM  
  Q    E  E  Q    E  E     E  E  E  E  Q    E  E     Q    E  E  Q    E  E   
------------------------|-------------------------|------------------------|
------------------------|-------------------------|------------------------|
------------------------|-------------------------|------------------------|
------------------------|-----5-------------------|--7----------2----------|
--7----------7----------|--5--3--------2----------|--5----5--5--0----0--0--|
--5----5--5--5----5--5--|--3-----3--3--0----0--0--|------------------------|


                                                            PM           
  H        E  E  E  E     E  E  E  E  Q    Q       E  E  E  E  H         
-----------------------|------------------------|-----------------------|
-----------------------|------------------------|-----------------------|
-----------------------|------------------------|-----------------------|
-----------------------|------------------------|-----5-----------------|
--2--------L-----------|--5-----------7---------|--5--3--------2--------|
--0--------L--8--7--5--|--3--5-----5--5---------|--3--------3--0--------|


       PM PM                          PM PM                           
  Q    E  E  H           H.           E  E     E  E  E  E  Q    Q     
----------------------|---------------------|------------------------|
----------------------|---------------------|------------------------|
----------------------|---------------------|------------------------|
--7-------------------|---------------------|------------------------|
--5----5--5-----------|--5------------------|--5-----------7---------|
----------------------|--3------------3--3--|--3--5-----5--5---------|


           PM                  PM PM                                
  E  E  E  E  H           Q    E  E  Q    Q       W                 
-----------------------|-----------------------|-------------------|
-----------------------|-----------------------|-------------------|
-----------------------|-----------------------|-------------------|
-----5-----------------|--7--------------------|-------------------|
--5--3--------2--------|--5----5--5-------7----|--2----------------|
--3--------3--0--------|------------------5----|--0----------------|


       PM PM                                         PM PM            
  Q    E  E  E  E  Q       H        H           Q    E  E  Q    Q     
------------------------|--------------------|-----------------------|
------------------------|--------------------|-----------------------|
------------------------|--------------------|-----------------------|
------------------------|--------------------|--5---------------5----|
--7----------5--7--7----|--3--------3--------|--3----3--3--5----3----|
--5----5--5--3--5--5----|--1--------1--------|-------------3---------|


       PM PM                   PM PM                                  
  Q    E  E  Q    Q       Q    E  E  E  E  Q       H        H         
-----------------------|------------------------|--------------------|
-----------------------|------------------------|--------------------|
-----------------------|------------------------|--------------------|
------------------4----|------------------------|--------------------|
--2----------5----2----|--7----------5--7--7----|--3--------3--------|
--0----0--0--3---------|--5----5--5--3--5--5----|--1--------1--------|


       PM PM                   PM PM                   PM PM             
  Q    E  E  Q    Q       Q    E  E  Q    Q       Q    E  E  E  E  Q     
-----------------------|-----------------------|------------------------|
-----------------------|-----------------------|------------------------|
-----------------------|-----------------------|------------------------|
--5---------------5----|------------------4----|------------------------|
--3----3--3--5----3----|--2----------5----2----|--7----------5--7--7----|
-------------3---------|--0----0--0--3---------|--5----5--5--3--5--5----|


                            PM PM                   PM PM            
  H        H           Q    E  E  Q    Q       Q    E  E  Q    Q     
--------------------|-----------------------|-----------------------|
--------------------|-----------------------|-----------------------|
--------------------|-----------------------|-----------------------|
--------------------|--5---------------5----|------------------4----|
--3--------3--------|--3----3--3--5----3----|--2----------5----2----|
--1--------1--------|-------------3---------|--0----0--0--3---------|


       PM PM                                         PM PM            
  Q    E  E  E  E  Q       H        H           Q    E  E  Q    Q     
------------------------|--------------------|-----------------------|
------------------------|--------------------|-----------------------|
------------------------|--------------------|-----------------------|
------------------------|--------------------|--5---------------5----|
--7----------5--7--7----|--3--------3--------|--3----3--3--5----3----|
--5----5--5--3--5--5----|--1--------1--------|-------------3---------|


       PM PM                                                     
  Q    E  E  Q    Q       W                   W                  
-----------------------|-------------------|-------------------||
-----------------------|-------------------|-------------------||
-----------------------|-------------------|-------------------||
------------------4----|-------------------|-------------------||
--2----------5----2----|--7----------------|--L----------------||
--0----0--0--3---------|--5----------------|--L----------------||







Lead Guitar



       H         H            H         H            H         H         
E||-----------------------|----------------------|----------------------|
B||---13------------------|--12------------------|--13------------------|
G||*------------14--------|------------12--------|------------14--------|
D||*----------------------|----------------------|----------------------|
A||-----------------------|----------------------|----------------------|
E||-----------------------|----------------------|----------------------|


   H         H               H         H            H         H         
--12-------------------||-----------------------|----------------------|
------------15---------||---13------------------|--12------------------|
----------------------*||*------------14--------|------------12--------|
----------------------*||*----------------------|----------------------|
-----------------------||-----------------------|----------------------|
-----------------------||-----------------------|----------------------|


   H         H            H         H              Q     Q     E   E   Q     
----------------------|--12-------------------||----------------------------|
--13------------------|------------15---------||--13----13----12--13--13----|
------------14--------|----------------------*||----------------------------|
----------------------|----------------------*||----------------------------|
----------------------|-----------------------||----------------------------|
----------------------|-----------------------||----------------------------|


   H          H             Q     Q     Q     Q        Q     Q     Q     Q     
------------------------|--12----12----10----12----|--------------------------|
--10~--------10~--------|--------------------------|--13----12----10----12----|
------------------------|--------------------------|--------------------------|
------------------------|--------------------------|--------------------------|
------------------------|--------------------------|--------------------------|
------------------------|--------------------------|--------------------------|


   Q     Q     E   E   Q        H          H          
----------------------------|------------------------|
--13----13----12--13--13----|--10~--------10~--------|
----------------------------|------------------------|
----------------------------|------------------------|
----------------------------|------------------------|
----------------------------|------------------------|


   Q     Q     Q     Q        Q     Q     Q     Q     
--12----12----10----12----|--------------------------|
--------------------------|--13----12----10----12----|
--------------------------|--------------------------|
--------------------------|--------------------------|
--------------------------|--------------------------|
--------------------------|--------------------------|


   Q     Q     E   E   Q        H          H          
----------------------------|------------------------|
--13----13----12--13--13----|--10~--------10~--------|
----------------------------|------------------------|
----------------------------|------------------------|
----------------------------|------------------------|
----------------------------|------------------------|


   Q     Q     Q     Q        Q     Q     Q     Q     
--12----12----10----12----|--------------------------|
--------------------------|--13----12----10----12----|
--------------------------|--------------------------|
--------------------------|--------------------------|
--------------------------|--------------------------|
--------------------------|--------------------------|


   Q     Q     E   E   Q        H          H          
----------------------------|------------------------|
--13----13----12--13--13----|--10~--------10~--------|
----------------------------|------------------------|
----------------------------|------------------------|
----------------------------|------------------------|
----------------------------|------------------------|


   Q     Q     Q     Q        Q     Q     Q     Q     
--12----12----10----12----|--------------------------|
--------------------------|--13----12----10----12----|
--------------------------|--------------------------|
--------------------------|--------------------------|
--------------------------|--------------------------|
--------------------------|--------------------------|


   Q     Q     E   E   Q        H          Q     Q     
----------------------------|-------------------10----|
--13----13----12--13--13----|--10~--------12----------|
----------------------------|-------------------------|
----------------------------|-------------------------|
----------------------------|-------------------------|
----------------------------|-------------------------|


   H          Q     Q        H          Q     E   E   
--12~--------10----------|---------------------------|
-------------------13----|--12~--------13----13--12--|
-------------------------|---------------------------|
-------------------------|---------------------------|
-------------------------|---------------------------|
-------------------------|---------------------------|


   Q     E   E   E   E   Q        H          H          
------------------------------|--13~--------10~--------|
--13----13--13--12--13--13----|------------------------|
------------------------------|------------------------|
------------------------------|------------------------|
------------------------------|------------------------|
------------------------------|------------------------|


   H          Q     Q        H          Q     E   E      H          H         
--12~--------10----------|---------------------------|-----------------------|
-------------------13----|--12~--------13----13--12--|--13-------------------|
-------------------------|---------------------------|-------------14--------|
-------------------------|---------------------------|--10S---------x--------|
-------------------------|---------------------------|-----------------------|
-------------------------|---------------------------|-----------------------|


   H         H            H         H            H         H         
----------------------|----------------------|--12------------------|
--12------------------|--13------------------|------------15--------|
------------12--------|------------14--------|----------------------|
----------------------|----------------------|----------------------|
----------------------|----------------------|----------------------|
----------------------|----------------------|----------------------|


   H         H            H         H            H         H         
----------------------|----------------------|----------------------|
--13------------------|--12------------------|--13------------------|
------------14--------|------------12--------|------------14--------|
----------------------|----------------------|----------------------|
----------------------|----------------------|----------------------|
----------------------|----------------------|----------------------|


   H         H            Q     Q    E   E   Q       H         H          
--12------------------|---------------------------|----------------------|
------------15--------|---------------------------|----------------------|
----------------------|---------------------------|----------------------|
----------------------|--10----10----9--10--10----|--7~--------7~--------|
----------------------|---------------------------|----------------------|
----------------------|---------------------------|----------------------|


  Q    Q    Q    Q        Q    Q    Q    Q        Q     Q    E   E   Q     
----------------------|-----------------------|---------------------------|
----------------------|-----------------------|---------------------------|
--9----9----7----9----|-----------------------|---------------------------|
----------------------|--10----9----7----9----|--10----10----9--10--10----|
----------------------|-----------------------|---------------------------|
----------------------|-----------------------|---------------------------|


  H         H            Q    Q    Q    Q        Q    Q    Q    Q     
----------------------|----------------------|-----------------------|
----------------------|----------------------|-----------------------|
----------------------|--9----9----7----9----|-----------------------|
--7~--------7~--------|----------------------|--10----9----7----9----|
----------------------|----------------------|-----------------------|
----------------------|----------------------|-----------------------|


   Q     Q    E   E   Q       H         H            Q    Q    Q    Q     
---------------------------|----------------------|----------------------|
---------------------------|----------------------|----------------------|
---------------------------|----------------------|--9----9----7----9----|
--10----10----9--10--10----|--7~--------7~--------|----------------------|
---------------------------|----------------------|----------------------|
---------------------------|----------------------|----------------------|


   Q    Q    Q    Q        Q     Q    E   E   Q       H         H          
-----------------------|---------------------------|----------------------|
-----------------------|---------------------------|----------------------|
-----------------------|---------------------------|----------------------|
--10----9----7----9----|--10----10----9--10--10----|--7~--------7~--------|
-----------------------|---------------------------|----------------------|
-----------------------|---------------------------|----------------------|


                                                      PM PM      PM PM  
  Q    Q    Q    Q        Q    Q    Q    Q       Q    E  E  Q    E  E   
----------------------|-----------------------|------------------------|
----------------------|-----------------------|------------------------|
--9----9----7----9----|-----------------------|------------------------|
----------------------|--10----9----7----9----|------------------------|
----------------------|-----------------------|--3----------2----------|
----------------------|-----------------------|-------0--0-------0--0--|


       PM PM      PM PM         PM PM      PM PM         PM PM           
  Q    E  E  Q    E  E     Q    E  E  Q    E  E     Q    E  E  H         
------------------------|------------------------|----------------------|
------------------------|------------------------|----------------------|
------------------------|------------------------|----------------------|
------------------------|------------------------|----------------------|
------------------------|--3----------2----------|-------------7--------|
--5----0--0--5----0--0--|-------0--0-------0--0--|--5----0--0--5--------|


       PM PM      PM PM         PM PM      PM PM         PM PM      PM PM  
  Q    E  E  Q    E  E     Q    E  E  Q    E  E     Q    E  E  Q    E  E   
------------------------|------------------------|------------------------|
------------------------|------------------------|------------------------|
------------------------|------------------------|------------------------|
--3----------2----------|------------------------|------------------------|
-------0--0-------0--0--|--5----------5----------|--3----------2----------|
------------------------|-------3--3-------3--3--|-------0--0-------0--0--|


  H.           Q       Q    E  E  Q    E  E     Q    Q    Q    E  E   
--------------------|--0----0--0--0----0--0--|--0----0----0----0--0--|
--------------------|--1----1--1--0----0--0--|--1----1----1----0--0--|
--------------------|--2----2--2--0----0--0--|--2----2----2----0--0--|
--------------------|--2----2--2--2----2--2--|--2----2----2----2--2--|
--7-----------------|--0----0--0--2----2--2--|--0----0----0----2--2--|
--5-----------------|-------------0----0--0--|-----------------0--0--|


  Q    E  E  Q    E  E     Q    Q    Q    E  E     Q    E  E  Q    E  E   
--0----0--0--0----0--0--|--0----0----0----0--0--|--0----0--0--0----0--0--|
--1----1--1--0----0--0--|--1----1----1----0--0--|--1----1--1--0----0--0--|
--2----2--2--0----0--0--|--2----2----2----0--0--|--2----2--2--0----0--0--|
--2----2--2--2----2--2--|--2----2----2----2--2--|--2----2--2--2----2--2--|
--0----0--0--2----2--2--|--0----0----0----2--2--|--0----0--0--2----2--2--|
-------------0----0--0--|-----------------0--0--|-------------0----0--0--|


  Q    E  E  Q    E  E     Q    E  E  Q    E  E     H        E  Q    E   
--0----0--0--0----0--0--|--0----0--0--0----0--0--|--0-------------------|
--1----1--1--0----0--0--|--1----1--1--0----0--0--|--1-------------------|
--2----2--2--0----0--0--|--2----2--2--0----0--0--|--2-------------------|
--2----2--2--2----2--2--|--2----2--2--2----2--2--|--2-------------------|
--0----0--0--2----2--2--|--0----0--0--2----2--2--|--0--------7--5----2--|
-------------0----0--0--|-------------0----0--0--|-----------5--3----0--|


       PM PM      PM PM                             PM PM      PM PM  
  Q    E  E  Q    E  E     W                   Q    E  E  Q    E  E   
------------------------|-------------------|------------------------|
------------------------|-------------------|------------------------|
------------------------|-------------------|------------------------|
------------------------|-------------------|------------------------|
--7----------2----------|--7----------------|--7----------2----------|
--5----5--5--0----0--0--|--5----------------|--5----5--5--0----0--0--|


                           PM PM      PM PM         PM PM      PM PM  
  W                   Q    E  E  Q    E  E     Q    E  E  Q    E  E   
-------------------|------------------------|------------------------|
-------------------|------------------------|------------------------|
-------------------|------------------------|------------------------|
-------------------|------------------------|--5---------------------|
--7----------------|--7----------5----------|--3----3--3--5----------|
--5----------------|--5----5--5--3----3--3--|-------------3----3--3--|


       PM PM      PM PM                                               
  Q    E  E  Q    E  E     W                   E   E  Q    Q    Q     
------------------------|-------------------|------------------------|
------------------------|-------------------|------------------------|
------------------------|-------------------|--7h--9--9----9---------|
------------------------|-------------------|------------------------|
--7----------2----------|--7----------------|------------------------|
--5----5--5--0----0--0--|--5----------------|------------------------|


  E   E  Q    E  E   Q        H         Q.       E     H.            E  E   
--------------------------|-------------------------|----------------------|
--------------------------|-------------------------|----------------------|
--7-----------------------|--10~--------9~----------|--7~------------7--7--|
-----10-------9--7--------|---------------------10--|----------------------|
--------------------10----|-------------------------|----------------------|
--------------------------|-------------------------|----------------------|


  E   E  Q    Q    Q       E   E  Q    E  E   Q        H         Q.      E   
------------------------|--------------------------|------------------------|
------------------------|--------------------------|------------------------|
--7h--9--9----9---------|--7-----------------------|--10~--------9~------7--|
------------------------|-----10-------9--7--------|------------------------|
------------------------|--------------------10----|------------------------|
------------------------|--------------------------|------------------------|


  H.            Q       E   E  Q    Q    Q       E   E  Q    E  E   Q     
---------------------|------------------------|--------------------------|
---------------------|------------------------|--------------------------|
--9~-----------------|--7h--9--9----9---------|--7-----------------------|
---------------------|------------------------|-----10-------9--7--------|
---------------------|------------------------|--------------------10----|
---------------------|------------------------|--------------------------|


   H         Q      Q       H.           E  E     E   E  Q    Q    Q     
-------------------------|---------------------|------------------------|
-------------------------|---------------------|------------------------|
--10~--------9~----------|--7------------7--7--|--7h--9--9----9---------|
-------------------10----|---------------------|------------------------|
-------------------------|---------------------|------------------------|
-------------------------|---------------------|------------------------|


  E   E  Q    E  E   Q        H         Q.      E     H.            Q     
--------------------------|------------------------|---------------------|
--------------------------|------------------------|---------------------|
--7-----------------------|--10~--------9~------7--|--9~-----------------|
-----10-------9--7--------|------------------------|---------------------|
--------------------10----|------------------------|---------------------|
--------------------------|------------------------|---------------------|


   Q     Q    E   E   Q       H         H            Q    Q    Q    Q     
---------------------------|----------------------|----------------------|
---------------------------|----------------------|----------------------|
---------------------------|----------------------|--9----9----7----9----|
--10----10----9--10--10----|--7~--------7~--------|----------------------|
---------------------------|----------------------|----------------------|
---------------------------|----------------------|----------------------|


   Q    Q    Q    Q        Q     Q    E   E   Q       H         H          
-----------------------|---------------------------|----------------------|
-----------------------|---------------------------|----------------------|
-----------------------|---------------------------|----------------------|
--10----9----7----9----|--10----10----9--10--10----|--7~--------7~--------|
-----------------------|---------------------------|----------------------|
-----------------------|---------------------------|----------------------|


  Q    Q    Q    Q        Q    Q    Q    Q       H.            E  E   
----------------------|-----------------------|----------------------|
----------------------|-----------------------|----------------------|
--9----9----7----9----|-----------------------|--8b------------7--9--|
----------------------|--10----9----7----9----|----------------------|
----------------------|-----------------------|----------------------|
----------------------|-----------------------|----------------------|


   Q.      E   E   E   E   E      H          Q.        E   
------------------------------|---------------------------|
--------------10------10--12--|--12b--------12br------10--|
--10------10------10----------|---------------------------|
------------------------------|---------------------------|
------------------------------|---------------------------|
------------------------------|---------------------------|


   Q.     E   Q     E   E      Q.       E   Q      E   E   
--------------------8--10--|--12~-------L--12~----10--12--|
--12-----------------------|------------------------------|
----------9~--9~-----------|------------------------------|
---------------------------|------------------------------|
---------------------------|------------------------------|
---------------------------|------------------------------|


   Q.       E   E    E   E    E      Q.       E   E   S   S   E   E   
--12b-------------------10h--13--|--12~------10----------------------|
-----------13--12h--13-----------|---------------13--12h-13p-12--10--|
---------------------------------|-----------------------------------|
---------------------------------|-----------------------------------|
---------------------------------|-----------------------------------|
---------------------------------|-----------------------------------|


                                PM PM      PM PM         PM PM      PM PM  
   Q     E  H        E     Q    E  E  Q    E  E     Q    E  E  Q    E  E   
------------------------|------------------------|------------------------|
--12S----x--------------|------------------------|------------------------|
------------------------|------------------------|------------------------|
------------------------|------------------------|------------------------|
------------------------|--3----------2----------|------------------------|
------------------------|-------0--0-------0--0--|--5----0--0--5----0--0--|


       PM PM      PM PM         PM PM                  PM PM      PM PM  
  Q    E  E  Q    E  E     Q    E  E  H           Q    E  E  Q    E  E   
------------------------|----------------------|------------------------|
------------------------|----------------------|------------------------|
------------------------|----------------------|------------------------|
------------------------|----------------------|--3----------2----------|
--3----------2----------|-------------7--------|-------0--0-------0--0--|
-------0--0-------0--0--|--5----0--0--5--------|------------------------|


       PM PM      PM PM         PM PM      PM PM                       
  Q    E  E  Q    E  E     Q    E  E  Q    E  E     H.           Q     
------------------------|------------------------|--------------------|
------------------------|------------------------|--------------------|
------------------------|------------------------|--------------------|
------------------------|------------------------|--------------------|
--5----------5----------|--3----------2----------|--7-----------------|
-------3--3-------3--3--|-------0--0-------0--0--|--5-----------------|


  Q    E  E  Q    E  E     Q    Q    Q    E  E     Q    E  E  Q    E  E   
--0----0--0--0----0--0--|--0----0----0----0--0--|--0----0--0--0----0--0--|
--1----1--1--0----0--0--|--1----1----1----0--0--|--1----1--1--0----0--0--|
--2----2--2--0----0--0--|--2----2----2----0--0--|--2----2--2--0----0--0--|
--2----2--2--2----2--2--|--2----2----2----2--2--|--2----2--2--2----2--2--|
--0----0--0--2----2--2--|--0----0----0----2--2--|--0----0--0--2----2--2--|
-------------0----0--0--|-----------------0--0--|-------------0----0--0--|


     PM PM PM PM PM               PM PM      PM PM         PM PM      PM PM  
  E  E  E  E  E  E  E  E     Q    E  E  Q    E  E     Q    E  E  Q    E  E   
--0-----------------------|------------------------|------------------------|
--1-----------------------|------------------------|------------------------|
--2-----------------------|------------------------|------------------------|
--2-----------------------|------------------------|--5---------------------|
--0--7--7--7--7--7--7--7--|--7----------5----------|--3----3--3--5----------|
-----5--5--5--5--5--5--5--|--5----5--5--3----3--3--|-------------3----3--3--|


       PM PM      PM PM                  PM PM         PM PM      PM PM  
  Q    E  E  Q    E  E     Q    H        E  E     Q    E  E  Q    E  E   
------------------------|----------------------|------------------------|
------------------------|----------------------|------------------------|
------------------------|----------------------|------------------------|
------------------------|----------------------|------------------------|
--7----------2----------|--7----L--------------|--7----------2----------|
--5----5--5--0----0--0--|--5----L--------5--5--|--5----5--5--0----0--0--|


                PM PM         PM PM      PM PM                  PM PM  
  Q    H        E  E     Q    E  E  Q    E  E     Q    H        E  E   
----------------------|------------------------|----------------------|
----------------------|------------------------|----------------------|
----------------------|------------------------|----------------------|
----------------------|------------------------|----------------------|
--7----L--------------|--7----------2----------|--7----L--------------|
--5----L--------5--5--|--5----5--5--0----0--0--|--5----L--------5--5--|


       PM PM      PM PM         PM PM      PM PM         PM PM      PM PM  
  Q    E  E  Q    E  E     Q    E  E  Q    E  E     Q    E  E  Q    E  E   
------------------------|------------------------|------------------------|
------------------------|------------------------|------------------------|
------------------------|------------------------|------------------------|
------------------------|--5---------------------|------------------------|
--7----------5----------|--3----3--3--5----------|--7----------2----------|
--5----5--5--3----3--3--|-------------3----3--3--|--5----5--5--0----0--0--|


  W                   E   E  Q    Q    Q       E   E  Q    E  E   Q     
-------------------|------------------------|--------------------------|
-------------------|------------------------|--------------------------|
-------------------|--7h--9--9----9---------|--7-----------------------|
-------------------|------------------------|-----10-------9--7--------|
--7----------------|------------------------|--------------------10----|
--5----------------|------------------------|--------------------------|


   H         Q.       E     H.            Q       E   E  Q    Q    Q     
-------------------------|---------------------|------------------------|
-------------------------|---------------------|------------------------|
--10~--------9~----------|--7~-----------------|--7h--9--9----9---------|
---------------------10--|---------------------|------------------------|
-------------------------|---------------------|------------------------|
-------------------------|---------------------|------------------------|


  E   E  Q    E  E   Q        H         Q.      E     H.            Q     
--------------------------|------------------------|---------------------|
--------------------------|------------------------|---------------------|
--7-----------------------|--10~--------9~------7--|--9~-----------------|
-----10-------9--7--------|------------------------|---------------------|
--------------------10----|------------------------|---------------------|
--------------------------|------------------------|---------------------|


  E   E  Q    Q    Q       E   E  Q    E  E   Q        H         Q      Q     
------------------------|--------------------------|-------------------------|
------------------------|--------------------------|-------------------------|
--7h--9--9----9---------|--7-----------------------|--10~--------9~----------|
------------------------|-----10-------9--7--------|-------------------10----|
------------------------|--------------------10----|-------------------------|
------------------------|--------------------------|-------------------------|


  H.           E  E     E   E  Q    Q    Q       E   E  Q    E  E   Q     
---------------------|------------------------|--------------------------|
---------------------|------------------------|--------------------------|
--7------------7--7--|--7h--9--9----9---------|--7-----------------------|
---------------------|------------------------|-----10-------9--7--------|
---------------------|------------------------|--------------------10----|
---------------------|------------------------|--------------------------|


   H         Q.      E     H.            Q        Q     Q    E   E   Q     
------------------------|---------------------|---------------------------|
------------------------|---------------------|---------------------------|
--10~--------9~------7--|--9~-----------------|---------------------------|
------------------------|---------------------|--10----10----9--10--10----|
------------------------|---------------------|---------------------------|
------------------------|---------------------|---------------------------|


  H         E  E   E  E     Q    Q    Q    Q        Q    Q    Q    Q     
-------------------------|----------------------|-----------------------|
-------------------------|----------------------|-----------------------|
----------------------7--|--9----9----7----9----|-----------------------|
--7~--------7--9--10-----|----------------------|--10----9----7----9----|
-------------------------|----------------------|-----------------------|
-------------------------|----------------------|-----------------------|


   Q     Q    E   E   Q       H         E  E   E  E     Q    Q    Q    Q     
---------------------------|-------------------------|----------------------|
---------------------------|-------------------------|----------------------|
---------------------------|----------------------7--|--9----9----7----9----|
--10----10----9--10--10----|--7~--------7--9--10-----|----------------------|
---------------------------|-------------------------|----------------------|
---------------------------|-------------------------|----------------------|


   Q    Q    Q    Q        Q     Q    E   E   Q       H         E  E   E  E   
-----------------------|---------------------------|-------------------------|
-----------------------|---------------------------|-------------------------|
-----------------------|---------------------------|----------------------7--|
--10----9----7----9----|--10----10----9--10--10----|--7~--------7--9--10-----|
-----------------------|---------------------------|-------------------------|
-----------------------|---------------------------|-------------------------|


  Q    Q    Q    Q        Q    Q    Q    Q        Q     Q    E   E   Q     
----------------------|-----------------------|---------------------------|
----------------------|-----------------------|---------------------------|
--9----9----7----9----|-----------------------|---------------------------|
----------------------|--10----9----7----9----|--10----10----9--10--10----|
----------------------|-----------------------|---------------------------|
----------------------|-----------------------|---------------------------|


  H         E  E   E  E     Q    Q    Q    Q        Q    Q    Q    Q     
-------------------------|----------------------|-----------------------|
-------------------------|----------------------|-----------------------|
----------------------7--|--9----9----7----9----|-----------------------|
--7~--------7--9--10-----|----------------------|--10----9----7----9----|
-------------------------|----------------------|-----------------------|
-------------------------|----------------------|-----------------------|


  W                    W                  
--------------------|-------------------||
--------------------|-------------------||
--------------------|-------------------||
--7~----------------|--L----------------||
--------------------|-------------------||
--------------------|-------------------||




Duration Legend
---------------
W - whole
H - half
Q - quarter
E - 8th
S - 16th
T - 32nd
X - 64th
. - note dotted
|-n-|  - n-tuplets


Tablature Legend
----------------
L - tied note
x - dead note
g - grace note
(n) - ghost note
> - accentuded note
NH - natural harmonic
AH - artificial harmonic
TH - tapped harmonic
SH - semi harmonic
PH - pitch harmonic
h - hammer on
p - pull off
b - bend
br - bendRelease
pb - preBend
pbr - preBendRelease
brb - bendReleaseBend
\n/ - tremolo bar dip
\n - tremolo bar dive
-/n - tremolo bar Release up
/n\ - tremolo bar inverted dip
/n - tremolo bar return
-\n - tremolo bar Release down
S - shift slide
s - legato slide
/ -  slide into from below or out of upwards
\ -  slide into from above or out of downwards
~ - vibrato
W - wide vibrato
tr - trill
TP - tremolo picking
T - tapping
S - slap
P - pop
< - fade in
^ - brush up
v - brush down
Suggest correction
Creating personal tab
Creating personal tab
You can edit any tab online and save it as your Personal.

You can edit, replace or remove any tab part or add personal notes – all changes will be seen only by you.

Personal tabs can be accessed anytime from any device, even offline.
Learn more »
Give kudos to tab author, rate the tab!
1 2 3 4 5
comments
print report bad tab
guest
You may want to rate the tab now too:
select rating
Wanna post a correction for this tab? Suggest correction