Oops, an error
Loading. Please wait.

Tale Of Revenge tab

version 1
version 1

Whole song

Interactive

7,342 views 6 this week
1 commentread comment
1 2 3 4 5
x 3
add to favorites
×
Save as Personal and add changes to this tab that will be seen only by you. Learn more ›
×
You can save this tab as Personal to edit and correct it or add notes. All changes will be seen only by you. Learn more »
launch autoscroll
font size
0
reset
how to read this tab
guitar tuner
edit
Autoscroll
slow
fast
+/-
esc
set tempo
stop
                                Tale Of Revenge                                 


                                                                       Ensiferum
Rhythm Guitar



     W                   W                   H.           E  E   
E||-------------------|-------------------|---------------------|
B||-------------------|-------------------|---------------------|
G||--7----------------|-------------------|--3------------------|
D||--7----------------|--7----------------|--3------------------|
A||--5----------------|--7----------------|--1------------1--1--|
E||-------------------|--5----------------|---------------------|


  H.           E  E     W                   H.           E  E   
---------------------|-------------------|---------------------|
---------------------|-------------------|---------------------|
---------------------|--7----------------|--3------------------|
--3------------------|--7----------------|--3------------------|
--3------------------|--5----------------|--1------------1--1--|
--1------------1--1--|-------------------|---------------------|


  H        Q    E  E     H.           E  E     W                 
----------------------|---------------------|-------------------|
----------------------|---------------------|-------------------|
----------------------|--7------------------|--7----------------|
--3--------7----------|--7------------------|--7----------------|
--3--------7----------|--5------------5--5--|--5----------------|
--1--------5----5--5--|---------------------|-------------------|


  W                   H.           E  E     H.           E  E   
-------------------|---------------------|---------------------|
-------------------|---------------------|---------------------|
-------------------|--3------------------|---------------------|
--7----------------|--3------------------|--3------------------|
--7----------------|--1------------1--1--|--3------------------|
--5----------------|---------------------|--1------------1--1--|


  W                   H.           E  E     H        Q    E  E   
-------------------|---------------------|----------------------|
-------------------|---------------------|----------------------|
--7----------------|--3------------------|----------------------|
--7----------------|--3------------------|--3--------7----------|
--5----------------|--1------------1--1--|--3--------7----------|
-------------------|---------------------|--1--------5----5--5--|


  H         H            Q    E  E  E  E  E  E     Q    E  E  E  E  E  E   
----------------------|-------------------------|-------------------------|
----------------------|-------------------------|-------------------------|
--7-------------------|--7----------------------|-------------------------|
--7--------12S--------|--7----------------------|--7----------------------|
--5--------12S--------|--5----5--5--5-----5--5--|--7----------------------|
----------------------|-------------------------|--5----5--5--5-----5--5--|


  Q    E  E  E  E  E  E     H.           E  E     Q    E  E  E  E  E  E   
-------------------------|---------------------|-------------------------|
-------------------------|---------------------|-------------------------|
--3----------------------|---------------------|--7----------------------|
--3----------------------|--3------------------|--7----------------------|
--1----1--1--1--1--1-----|--3------------------|--5----5--5--5-----5--5--|
-------------------------|--1------------1--1--|-------------------------|


  H.           E  E     H        Q    E  E     H.           E  E   
---------------------|----------------------|---------------------|
---------------------|----------------------|---------------------|
--3------------------|----------------------|--7------------------|
--3------------------|--3--------7----------|--7------------------|
--1------------1--1--|--3--------7----------|--5------------5--5--|
---------------------|--1--------5----5--5--|---------------------|


  Q    E  E  E  E  E  E     Q    E  E  E  E  E  E     Q    E  E  E  E  E  E   
-------------------------|-------------------------|-------------------------|
-------------------------|-------------------------|-------------------------|
--7----------------------|-------------------------|--3----------------------|
--7----------------------|--7----------------------|--3----------------------|
--5----5--5--5-----5--5--|--7----------------------|--1----1--1--1--1--1-----|
-------------------------|--5----5--5--5-----5--5--|-------------------------|


  H.           E  E     Q    E  E  E  E  E  E     H.           E  E   
---------------------|-------------------------|---------------------|
---------------------|-------------------------|---------------------|
---------------------|--7----------------------|--3------------------|
--3------------------|--7----------------------|--3------------------|
--3------------------|--5----5--5--5-----5--5--|--1------------1--1--|
--1------------1--1--|-------------------------|---------------------|


  H        Q    E  E     W                   E  E  E  E  H         
----------------------|-------------------|-----------------------|
----------------------|-------------------|-----------------------|
----------------------|--7----------------|-----------------------|
--3--------7----------|--7----------------|-----------------------|
--3--------7----------|--5----------------|--5--5--5--------------|
--1--------5----5--5--|-------------------|-----------------------|


  W                    Q    E  E  Q    E  E     E  E  Q    E  E  E  E   
-------------------|-------------------------|-------------------------|
-------------------|--10---------------------|-------------------------|
-------------------|---9----------5----------|--------3----------------|
-------------------|---7----7--7--5----------|--------3----------------|
-------------------|--------------3----3--3--|--1--1--1----3--3--3-----|
-------------------|-------------------------|-------------------------|


  W                   H        Q    E  E     Q    E  E  E  E  Q     
-------------------|----------------------|------------------------|
-------------------|-----------8----------|------------------------|
-------------------|-----------7----------|--7---------------------|
-------------------|-----------5----5--5--|--7----------------7----|
-------------------|----------------------|--5----5--5--------7----|
-------------------|----------------------|-------------5--5--5----|


  E  E  E  E  H           W                    Q    E  E  Q    E  E   
-----------------------|-------------------|-------------------------|
-----------------------|-------------------|--10---------------------|
-----------------------|-------------------|---9----------5----------|
-----------------------|-------------------|---7----7--7--5----------|
--5--5--5--------------|-------------------|--------------3----3--3--|
-----------------------|-------------------|-------------------------|


  E  E  Q    E  E  E  E     W                   H        H         
-------------------------|-------------------|--------------------|
-------------------------|-------------------|--------------------|
--------3----------------|-------------------|--------------------|
--------3----------------|-------------------|-----------5--------|
--1--1--1----0--0--0-----|-------------------|-----------5--------|
-------------------------|-------------------|-----------3--------|


  Q    E  E  E  E  Q       Q    E  E  E  E  E  E     E  E  E  E  Q    E  E   
------------------------|-------------------------|-------------------------|
------------------------|-------------------------|-------------------------|
--7---------------------|--7----------------------|--------------7----------|
--7----------------7----|--7----------------------|--------------7----------|
--5----5--5--------7----|--5----5--5--5-----5--5--|--5--5--5-----5----5--5--|
-------------5--5--5----|-------------------------|-------------------------|


   Q    E  E  Q    E  E     E  E  Q    Q    E  E     E  E  E  E  E  E  E  E   
-------------------------|------------------------|--------------------------|
--10---------------------|------------------------|--------------------------|
---9----------5----------|--------3----5----------|--------------------------|
---7----7--7--5----------|--------3----5----------|--------------------------|
--------------3----3--3--|--1--1--1----3----3--3--|--3-----3--3--3--3--3-----|
-------------------------|------------------------|--------------------------|


  Q    E  E  Q    E  E     Q    E  E  E  E  Q       Q    E  E  E  E  E  E   
------------------------|------------------------|-------------------------|
-------------8----------|------------------------|-------------------------|
--5----------7----------|--7---------------------|--7----------------------|
--5----------5----5--5--|--7----------------7----|--7----------------------|
--3----3--3-------------|--5----5--5--------7----|--5----5--5--5-----5--5--|
------------------------|-------------5--5--5----|-------------------------|


  E  E  E  E  Q    E  E      Q    E  E  Q    E  E     E  E  Q    Q    E  E   
-------------------------|-------------------------|------------------------|
-------------------------|--10---------------------|------------------------|
--------------7----------|---9----------5----------|--------3----2----------|
--------------7----------|---7----7--7--5----------|--------3----2----------|
--5--5--5-----5----5--5--|--------------3----3--3--|--1--1--1----0----0--0--|
-------------------------|-------------------------|------------------------|


  E  E  E  E  E  E  E  E     Q    E  E  Q    E  E     Q    E  E  E  E  Q     
--------------------------|------------------------|------------------------|
--------------------------|-------------8----------|------------------------|
--------------------------|--2----------7----------|--7---------------------|
--------------------------|--2----------5----5--5--|--7----------------7----|
--0-----0--0--0--0--0-----|--0----0--0-------------|--5----5--5--------7----|
--------------------------|------------------------|-------------5--5--5----|


  Q    E  E     E  E  E  E  Q    E  E     E  E  E  E  Q    E  E   
-------------|-------------------------|-------------------------|
-------------|--------------6----------|--------------5----------|
--7----------|--------------7----------|--------------5----------|
--7----------|--------------7----------|--------------5----------|
--5----5--5--|--5-----5--5-------5--5--|--3-----3--3-------3--3--|
-------------|-------------------------|-------------------------|


  Q    Q    Q    E  E     Q    Q    Q    E  E     E  E  E  E  Q    E  E   
-----------------------|-----------------------|-------------------------|
-----------------------|-----------------------|--------------5----------|
-----------------------|-----------------------|--------------5----------|
--3----2----3----------|-----------------------|--------------7----------|
--1----0----1----1--1--|--3----2----3----------|--------------7----------|
-----------------------|--1----0----1----1--1--|--5-----5--5-------5--5--|


  Q    Q    Q    E  E     Q    Q    Q    E  E     H        H         
-----------------------|-----------------------|--------------------|
-----------------------|-----------------------|--------------------|
-----------------------|-----------------------|--5--------5--------|
--7----5----7----------|-----------------------|--5--------5--------|
--5----3----5----5--5--|--3----2----3----------|--3--------3--------|
-----------------------|--1----0----1----1--1--|--------------------|


  E  E  E  E  Q    E  E     E  E  E  E  Q    E  E     Q    Q    Q    E  E   
-------------------------|-------------------------|-----------------------|
--------------6----------|--------------5----------|-----------------------|
--------------7----------|--------------5----------|-----------------------|
--------------7----------|--------------5----------|--3----2----3----------|
--5-----5--5-------5--5--|--3-----3--3-------3--3--|--1----0----1----1--1--|
-------------------------|-------------------------|-----------------------|


  Q    Q    Q    E  E     E  E  E  E  Q    E  E     Q    Q    Q    E  E   
-----------------------|-------------------------|-----------------------|
-----------------------|--------------5----------|-----------------------|
-----------------------|--------------5----------|-----------------------|
-----------------------|--------------7----------|--7----5----7----------|
--3----2----3----------|--------------7----------|--5----3----5----5--5--|
--1----0----1----1--1--|--5-----5--5-------5--5--|-----------------------|


  H        H           W                   H           E  E  E  E  H         
--------------------|-------------------|-----------|-----------------------|
--------------------|-------------------|-----------|-----------------------|
-----------7--------|-------------------|-----------|-----------------------|
--3--------7--------|--7----------------|--L--------|-----------------------|
--3--------5--------|--7----------------|--L--------|--5--5--5--------------|
--1-----------------|--5----------------|--L--------|-----------------------|


  W                    Q    E  E  Q    E  E     E  E  Q    E  E  E  E   
-------------------|-------------------------|-------------------------|
-------------------|--10---------------------|-------------------------|
-------------------|---9----------5----------|--------3----------------|
-------------------|---7----7--7--5----------|--------3----------------|
-------------------|--------------3----3--3--|--1--1--1----3--3--3-----|
-------------------|-------------------------|-------------------------|


  W                   H        Q    E  E     Q    E  E  E  E  Q     
-------------------|----------------------|------------------------|
-------------------|-----------8----------|------------------------|
-------------------|-----------7----------|--7---------------------|
-------------------|-----------5----5--5--|--7----------------7----|
-------------------|----------------------|--5----5--5--------7----|
-------------------|----------------------|-------------5--5--5----|


  E  E  E  E  H           W                    Q    E  E  Q    E  E   
-----------------------|-------------------|-------------------------|
-----------------------|-------------------|--10---------------------|
-----------------------|-------------------|---9----------5----------|
-----------------------|-------------------|---7----7--7--5----------|
--5--5--5--------------|-------------------|--------------3----3--3--|
-----------------------|-------------------|-------------------------|


  E  E  Q    E  E  E  E     W                   H        H         
-------------------------|-------------------|--------------------|
-------------------------|-------------------|--------------------|
--------3----------------|-------------------|-----------5--------|
--------3----------------|-------------------|-----------5--------|
--1--1--1----0--0--0-----|-------------------|-----------3--------|
-------------------------|-------------------|--------------------|


  H        H           Q    E  E  E  E  E  E     E  E  E  E  Q    E  E   
--------------------|-------------------------|-------------------------|
--------------------|-------------------------|-------------------------|
--------------------|-------------------------|-------------------------|
--3--------5--------|--7----------------------|--------------7----------|
--3--------5--------|--7----------------------|--------------7----------|
--1--------3--------|--5----5--5--5-----5--5--|--5--5--5-----5----5--5--|


  Q    E  E  Q    E  E     E  E  Q    Q    E  E     E  E  E  E  E  E  E  E   
------------------------|------------------------|--------------------------|
------------------------|------------------------|--------------------------|
--9---------------------|------------------------|--------------------------|
--9----------5----------|--------3----5----------|--------------------------|
--7----7--7--5----------|--------3----5----------|--------------------------|
-------------3----3--3--|--1--1--1----3----3--3--|--3-----3--3--3--3--3-----|


  Q    E  E  Q    E  E     Q    E  E  E  E  Q       Q    E  E  E  E  E  E   
------------------------|------------------------|-------------------------|
------------------------|------------------------|-------------------------|
-------------7----------|-------------------9----|-------------------------|
--5----------7----------|--7----------------9----|--7----------------------|
--5----------5----5--5--|--7----------7--7--7----|--7----------------------|
--3----3--3-------------|--5----5--5-------------|--5----5--5--5-----5--5--|


  E  E  E  E  Q    E  E     Q    E  E  Q    E  E     E  E  Q    Q    E  E   
-------------------------|------------------------|------------------------|
-------------------------|------------------------|------------------------|
-------------------------|--9---------------------|------------------------|
--------------7----------|--9----------5----------|--------3----2----------|
--------------7----------|--7----7--7--5----------|--------3----2----------|
--5--5--5-----5----5--5--|-------------3----3--3--|--1--1--1----0----0--0--|


  E  E  E  E  E  E  E  E     Q    E  E  Q    E  E     Q    E  E  E  E  Q     
--------------------------|------------------------|------------------------|
--------------------------|------------------------|------------------------|
--------------------------|-------------7----------|-------------------9----|
--------------------------|--2----------7----------|--7----------------9----|
--------------------------|--2----------5----5--5--|--7----------7--7--7----|
--0-----0--0--0--0--0-----|--0----0--0-------------|--5----5--5-------------|


  H           E  E  S S S S Q    S S S S    E  E  S S S S Q    S S S S  
-----------|-----------------------------|-----------------------------|
-----------|----------------6------------|----------------5------------|
-----------|----------------7------------|----------------5------------|
--7--------|----------------7------------|----------------5------------|
--7--------|--5-----5-5-5-5------5-5-5-5-|--3-----3-3-3-3------3-3-3-3-|
--5--------|-----------------------------|-----------------------------|


  Q    Q    Q    S S S S    Q    Q    Q    S S S S  
-------------------------|-------------------------|
-------------------------|-------------------------|
-------------------------|-------------------------|
--3----2----3------------|-------------------------|
--1----0----1----1-1-1-1-|--3----2----3------------|
-------------------------|--1----0----1----1-1-1-1-|


  E  E  S S S S Q    S S S S    Q    Q    Q    S S S S  
-----------------------------|-------------------------|
----------------5------------|-------------------------|
----------------5------------|-------------------------|
----------------7------------|--7----5----7------------|
----------------7------------|--5----3----5----5-5-5-5-|
--5-----5-5-5-5------5-5-5-5-|-------------------------|


  Q    Q    Q    S S S S    H        H           E  E  S S S S Q    S S S S  
-------------------------|--------------------|-----------------------------|
-------------------------|--------------------|----------------6------------|
-------------------------|--5--------5--------|----------------7------------|
-------------------------|--5--------5--------|----------------7------------|
--3----2----3------------|--3--------3--------|--5-----5-5-5-5------5-5-5-5-|
--1----0----1----1-1-1-1-|--------------------|-----------------------------|


  E  E  S S S S Q    S S S S    Q    Q    Q    S S S S  
-----------------------------|-------------------------|
----------------5------------|-------------------------|
----------------5------------|-------------------------|
----------------5------------|--3----2----3------------|
--3-----3-3-3-3------3-3-3-3-|--1----0----1----1-1-1-1-|
-----------------------------|-------------------------|


  Q    Q    Q    S S S S    E  E  S S S S Q    S S S S  
-------------------------|-----------------------------|
-------------------------|----------------5------------|
-------------------------|----------------5------------|
-------------------------|----------------7------------|
--3----2----3------------|----------------7------------|
--1----0----1----1-1-1-1-|--5-----5-5-5-5------5-5-5-5-|


  Q    Q    Q    S S S S    H        H           W                 
-------------------------|--------------------|-------------------|
-------------------------|--------------------|-------------------|
-------------------------|-----------7--------|-------------------|
--7----5----7------------|--3--------7--------|--7----------------|
--5----3----5----5-5-5-5-|--3--------5--------|--7----------------|
-------------------------|--1-----------------|--5----------------|


  E  S S S S S S S S S S Q       E  S S S S S S S S S S Q     
------------------------------|------------------------------|
------------------------------|------------------------------|
------------------------------|--7----------------------7----|
--7----------------------7----|--5--5-5-5-5-5-5-5-5-5-5-5----|
--5--5-5-5-5-5-5-5-5-5-5-5----|------------------------------|
------------------------------|------------------------------|


  E  S S S S S E  S S S Q       E  S S S S S S E  S S S S S S  
-----------------------------|--------------------------------|
-----------------------------|--------------------------------|
-----------------------------|--------------------------------|
--3---------------------3----|--2--------------2--------------|
--1--1-1-1-1-1-1--1-1-1-1----|--0--0-0-0-0-0-0-0--0-0-0-0-0-0-|
-----------------------------|--------------------------------|


  E  S S S S S S S S S S Q       H        Q    S S S S  
------------------------------|------------------------|
------------------------------|------------------------|
------------------------------|------------------------|
--7----------------------7----|--3--------3------------|
--5--5-5-5-5-5-5-5-5-5-5-5----|--1--------1----1-1-1-1-|
------------------------------|------------------------|


  H        Q    S S S S    W                   E  S S S S S S S S S S Q     
------------------------|-------------------|------------------------------|
------------------------|-------------------|------------------------------|
------------------------|-------------------|------------------------------|
------------------------|--7----------------|--7----------------------7----|
--3--------7------------|--5----------------|--5--5-5-5-5-5-5-5-5-5-5-5----|
--1--------5----5-5-5-5-|-------------------|------------------------------|


  E  S S S S S S S S S S Q       E  S S S S S E  S S S Q     
------------------------------|-----------------------------|
------------------------------|-----------------------------|
--7----------------------7----|-----------------------------|
--5--5-5-5-5-5-5-5-5-5-5-5----|--3---------------------3----|
------------------------------|--1--1-1-1-1-1-1--1-1-1-1----|
------------------------------|-----------------------------|


  E  S S S S S S E  S S S S S S    E  S S S S S S S S S S Q     
--------------------------------|------------------------------|
--------------------------------|------------------------------|
--------------------------------|------------------------------|
--2--------------2--------------|--7----------------------7----|
--0--0-0-0-0-0-0-0--0-0-0-0-0-0-|--5--5-5-5-5-5-5-5-5-5-5-5----|
--------------------------------|------------------------------|


  H        Q    S S S S    H        Q    S S S S    W                 
------------------------|------------------------|-------------------|
------------------------|------------------------|-------------------|
------------------------|------------------------|-------------------|
--3--------3------------|------------------------|--7----------------|
--1--------1----1-1-1-1-|--3--------7------------|--5----------------|
------------------------|--1--------5----5-5-5-5-|-------------------|


  This is probably wrong                                            
  Q                      E  E  Q    E  E     Q    E  E  Q    E  E   
------------------------------------------|--6----------6----------|
--6----------------------------6----------|--8----------8----------|
--7----------------------------7----------|--7----7--7--7----7--7--|
--7----------------------7--7--7----7--7--|--5---------------------|
--5---------------------------------------|------------------------|
------------------------------------------|------------------------|


  Q    E  E  E  E  Q       Q    E  E  Q    E  E   
------------------------|------------------------|
--3----------------3----|--1----------1----------|
--3----------------3----|--2----------2----------|
--3----3--3--3--3--3----|--2----2--2--2----2--2--|
------------------------|------------------------|
------------------------|------------------------|


  definitely wrong                                            
  Q                E  E  Q    E  E     Q    E  E  Q    E  E   
------------------------------------|--6---------------------|
--6---------------------------------|--6----------6----------|
--7----------------------7----------|--7----------7----------|
--7----------------7--7--7----7--7--|--8----8--8--8----8--8--|
--5---------------------------------|------------------------|
------------------------------------|------------------------|


  Q    E  E  Q    E  E     W                   E  S S S S S S S S S S Q     
--1----------5----------|-------------------|------------------------------|
--1----------5----------|--6----------------|------------------------------|
--2----------5----------|--7----------------|------------------------------|
--3----3--3--7----7--7--|--7----------------|--7----------------------7----|
------------------------|-------------------|--5--5-5-5-5-5-5-5-5-5-5-5----|
------------------------|-------------------|------------------------------|


  E  S S S S S S S S S S Q       E  S S S S S E  S S S Q     
------------------------------|-----------------------------|
------------------------------|-----------------------------|
--7----------------------7----|-----------------------------|
--5--5-5-5-5-5-5-5-5-5-5-5----|--3---------------------3----|
------------------------------|--1--1-1-1-1-1-1--1-1-1-1----|
------------------------------|-----------------------------|


  E  S S S S S S E  S S S S S S    E  S S S S S S S S S S Q     
--------------------------------|------------------------------|
--------------------------------|------------------------------|
--------------------------------|------------------------------|
--2--------------2--------------|--7----------------------7----|
--0--0-0-0-0-0-0-0--0-0-0-0-0-0-|--5--5-5-5-5-5-5-5-5-5-5-5----|
--------------------------------|------------------------------|


  H        Q    S S S S    H        Q    S S S S    W                 
------------------------|------------------------|-------------------|
------------------------|------------------------|-------------------|
------------------------|------------------------|-------------------|
--3--------3------------|------------------------|--7----------------|
--1--------1----1-1-1-1-|--3--------7------------|--5----------------|
------------------------|--1--------5----5-5-5-5-|-------------------|


-------------------|-------------------|-------------------|-------------------|
-------------------|-------------------|-------------------|-------------------|
-------------------|-------------------|-------------------|-------------------|
-------------------|-------------------|-------------------|-------------------|
-------------------|-------------------|-------------------|-------------------|
-------------------|-------------------|-------------------|-------------------|


-------------------|-------------------|-------------------|-------------------|
-------------------|-------------------|-------------------|-------------------|
-------------------|-------------------|-------------------|-------------------|
-------------------|-------------------|-------------------|-------------------|
-------------------|-------------------|-------------------|-------------------|
-------------------|-------------------|-------------------|-------------------|


-------------------|-------------------|-------------------|-------------------|
-------------------|-------------------|-------------------|-------------------|
-------------------|-------------------|-------------------|-------------------|
-------------------|-------------------|-------------------|-------------------|
-------------------|-------------------|-------------------|-------------------|
-------------------|-------------------|-------------------|-------------------|


-------------------|-------------------|-------------------|-------------------|
-------------------|-------------------|-------------------|-------------------|
-------------------|-------------------|-------------------|-------------------|
-------------------|-------------------|-------------------|-------------------|
-------------------|-------------------|-------------------|-------------------|
-------------------|-------------------|-------------------|-------------------|


  E  S S S S S S S S S S S S S S    E  S S S S S S S S S S S S S S  
---------------------------------|---------------------------------|
---------------------------------|---------------------------------|
---------------------------------|---------------------------------|
--7------------------------------|--7------------------------------|
--5--5-5-5-5-5-5-5-5-5-5-5-5-5-5-|--5--5-5-5-5-5-5-5-5-5-5-5-5-5-5-|
---------------------------------|---------------------------------|


  E  S S S S S S Q    Q       E  S S S S S S S S S S S S S S  
---------------------------|---------------------------------|
---------------------------|---------------------------------|
---------------------------|---------------------------------|
--3--------------3----2----|--7------------------------------|
--1--1-1-1-1-1-1-1----0----|--5--5-5-5-5-5-5-5-5-5-5-5-5-5-5-|
---------------------------|---------------------------------|


  Q    S S S S E  E  S S S S    Q    Q    Q    S S S S  
-----------------------------|-------------------------|
-----------------------------|-------------------------|
-----------------------------|-------------------------|
-----------------------------|-------------------------|
--3--------------------------|--3----2----3------------|
--1----1-1-1-1-1-----1-1-1-1-|--1----0----1----1-1-1-1-|


  E  S S S S S S S S S S S S S S    Q    Q    Q    S S S S  
---------------------------------|-------------------------|
---------------------------------|-------------------------|
---------------------------------|-------------------------|
--5------------------------------|-------------------------|
--3--3-3-3-3-3-3-3-3-3-3-3-3-3-3-|--7----5----7------------|
---------------------------------|--5----3----5----5-5-5-5-|


  E  S S S S S S S S S S S S S S    E  S S S S S S S S S S S S S S  
---------------------------------|---------------------------------|
---------------------------------|---------------------------------|
---------------------------------|---------------------------------|
--7------------------------------|--7------------------------------|
--5--5-5-5-5-5-5-5-5-5-5-5-5-5-5-|--5--5-5-5-5-5-5-5-5-5-5-5-5-5-5-|
---------------------------------|---------------------------------|


  E  S S S S S S Q    Q       E  S S S S S S S S S S S S S S  
---------------------------|---------------------------------|
---------------------------|---------------------------------|
---------------------------|---------------------------------|
--3--------------3----2----|--7------------------------------|
--1--1-1-1-1-1-1-1----0----|--5--5-5-5-5-5-5-5-5-5-5-5-5-5-5-|
---------------------------|---------------------------------|


  Q    S S S S E  E  S S S S    Q    Q    Q    S S S S    H        H         
-----------------------------|-------------------------|--------------------|
-----------------------------|-------------------------|--------------------|
-----------------------------|-------------------------|--------------------|
-----------------------------|-------------------------|--------------------|
--5--------------------------|--5----3----5------------|--3--------7--------|
--3----3-3-3-3-3-----3-3-3-3-|--3----1----3----3-3-3-3-|--1--------5--------|


  W                   E  S S S S S S S S S S Q     
-------------------|------------------------------|
-------------------|------------------------------|
-------------------|------------------------------|
--7----------------|--7----------------------7----|
--5----------------|--5--5-5-5-5-5-5-5-5-5-5-5----|
-------------------|------------------------------|


  E  S S S S S S S S S S Q       E  S S S S S E  S S S Q     
------------------------------|-----------------------------|
------------------------------|-----------------------------|
--7----------------------7----|-----------------------------|
--5--5-5-5-5-5-5-5-5-5-5-5----|--3---------------------3----|
------------------------------|--1--1-1-1-1-1-1--1-1-1-1----|
------------------------------|-----------------------------|


  E  S S S S S S E  S S S S S S    E  S S S S S S S S S S Q     
--------------------------------|------------------------------|
--------------------------------|------------------------------|
--------------------------------|------------------------------|
--2--------------2--------------|--7----------------------7----|
--0--0-0-0-0-0-0-0--0-0-0-0-0-0-|--5--5-5-5-5-5-5-5-5-5-5-5----|
--------------------------------|------------------------------|


  H        Q    S S S S    H        Q    S S S S    W                 
------------------------|------------------------|-------------------|
------------------------|------------------------|-------------------|
------------------------|------------------------|-------------------|
--3--------3------------|------------------------|--7----------------|
--1--------1----1-1-1-1-|--3--------7------------|--5----------------|
------------------------|--1--------5----5-5-5-5-|-------------------|


  E  S S S S S S S S S S Q       E  S S S S S S S S S S Q     
------------------------------|------------------------------|
------------------------------|------------------------------|
------------------------------|--7----------------------7----|
--7----------------------7----|--5--5-5-5-5-5-5-5-5-5-5-5----|
--5--5-5-5-5-5-5-5-5-5-5-5----|------------------------------|
------------------------------|------------------------------|


  E  S S S S S E  S S S Q       E  S S S S S S E  S S S S S S  
-----------------------------|--------------------------------|
-----------------------------|--------------------------------|
-----------------------------|--------------------------------|
--3---------------------3----|--2--------------2--------------|
--1--1-1-1-1-1-1--1-1-1-1----|--0--0-0-0-0-0-0-0--0-0-0-0-0-0-|
-----------------------------|--------------------------------|


  E  S S S S S S S S S S Q       H        Q    S S S S  
------------------------------|------------------------|
------------------------------|------------------------|
------------------------------|------------------------|
--7----------------------7----|--3--------3------------|
--5--5-5-5-5-5-5-5-5-5-5-5----|--1--------1----1-1-1-1-|
------------------------------|------------------------|


  H        Q    S S S S    W                   W                 
------------------------|-------------------|-------------------|
------------------------|-------------------|-------------------|
------------------------|-------------------|--7----------------|
------------------------|--7----------------|--7----------------|
--3--------7------------|--5----------------|--5----------------|
--1--------5----5-5-5-5-|-------------------|-------------------|


  W                   W                   H        H         
-------------------|-------------------|--------------------|
-------------------|-------------------|--------------------|
-------------------|--3----------------|--2--------2--------|
--5----------------|--3----------------|--2--------2--------|
--5----------------|--1----------------|--0--------0--------|
--3----------------|-------------------|--------------------|


  E  S S S S S S S S S S Q       H        Q    S S S S  
------------------------------|------------------------|
------------------------------|------------------------|
------------------------------|------------------------|
--7----------------------7----|--3--------3------------|
--5--5-5-5-5-5-5-5-5-5-5-5----|--1--------1----1-1-1-1-|
------------------------------|------------------------|


  H        Q    S S S S    W                   E  S S S S S S S S S S Q     
------------------------|-------------------|------------------------------|
------------------------|-------------------|------------------------------|
------------------------|-------------------|------------------------------|
------------------------|--7----------------|--7----------------------7----|
--3--------7------------|--5----------------|--5--5-5-5-5-5-5-5-5-5-5-5----|
--1--------5----5-5-5-5-|-------------------|------------------------------|


  E  S S S S S S S S S S Q       E  S S S S S S S S S S Q     
------------------------------|------------------------------|
------------------------------|------------------------------|
------------------------------|------------------------------|
------------------------------|--3----------------------3----|
--5----------------------5----|--1--1-1-1-1-1-1-1-1-1-1-1----|
--3--3-3-3-3-3-3-3-3-3-3-3----|------------------------------|


  E  S S S S S S E  S S S S S S    E  S S S S S S S S S S Q     
--------------------------------|------------------------------|
--------------------------------|------------------------------|
--------------------------------|------------------------------|
--2--------------2--------------|--7----------------------7----|
--0--0-0-0-0-0-0-0--0-0-0-0-0-0-|--5--5-5-5-5-5-5-5-5-5-5-5----|
--------------------------------|------------------------------|


  H        Q    S S S S    H        H           W                 
------------------------|--------------------|-------------------|
------------------------|--------------------|-------------------|
------------------------|--------------------|-------------------|
--3--------3------------|--------------------|--7----------------|
--1--------1----1-1-1-1-|--3--------7--------|--5----------------|
------------------------|--1--------5--------|-------------------|


-------------------||
-------------------||
-------------------||
-------------------||
-------------------||
-------------------||









Lead Guitar



      Q     E   E   E  E  Q       Q    E  E  E  E   Q     
E||----------------------------|-------------------------|
B||----------------------------|-------------------------|
G||--10----10--10--10--9--7----|--9----9--9--9--7--------|
D||----------------------------|-------------------10----|
A||----------------------------|-------------------------|
E||----------------------------|-------------------------|


  Q    E  E  E  E   Q       W                    Q    E  E  E  E   Q     
-------------------------|--------------------|-------------------------|
-------------------------|--------------------|-------------------------|
--7----7--7--7--9--10----|--------------------|--7----7--7--7--9--10----|
-------------------------|--7~----------------|-------------------------|
-------------------------|--------------------|-------------------------|
-------------------------|--------------------|-------------------------|


  H         H           H         Q    E   E     W                  
---------------------|------------------------|--------------------|
---------------------|------------------------|--------------------|
--7~-----------------|------------------------|--7~----------------|
------------8--------|--7--------10----7--10--|--------------------|
---------------------|------------------------|--------------------|
---------------------|------------------------|--------------------|


   Q     E   E   E  E  Q       Q    E  E  E  E   Q     
----------------------------|-------------------------|
----------------------------|-------------------------|
--10----10--10--10--9--7----|--9----9--9--9--7--------|
----------------------------|-------------------10----|
----------------------------|-------------------------|
----------------------------|-------------------------|


  Q    E  E  E   E  Q       W                    Q    E  E  E  E   Q     
-------------------------|--------------------|-------------------------|
-------------------------|--------------------|-------------------------|
--7----7--7--7------7----|--------------------|--7----7--7--7--9--10----|
----------------10-------|--7~----------------|-------------------------|
-------------------------|--------------------|-------------------------|
-------------------------|--------------------|-------------------------|


  H         H           H         Q    E   E     W                  
---------------------|------------------------|--------------------|
---------------------|------------------------|--------------------|
--7~-----------------|------------------------|--7~----------------|
------------8--------|--7--------10----7--10--|--------------------|
---------------------|------------------------|--------------------|
---------------------|------------------------|--------------------|


   Q     E   E   E  E  Q       Q    E  E  E   E  Q     
----------------------------|-------------------------|
----------------------------|-------------------------|
--10----10--10--10--9--7----|--9----9-----9--10--9----|
----------------------------|----------7--------------|
----------------------------|-------------------------|
----------------------------|-------------------------|


  Q    E  E  E   E  Q       H         H            Q    E  E  E  E   Q     
-------------------------|----------------------|-------------------------|
-------------------------|----------------------|-------------------------|
--7----7--7--7------7----|----------------------|--7----7--7--7--9--10----|
----------------10-------|--7~--------7~--------|-------------------------|
-------------------------|----------------------|-------------------------|
-------------------------|----------------------|-------------------------|


  H         H           H         Q    E   E     W                  
---------------------|------------------------|--------------------|
---------------------|------------------------|--------------------|
--7~-----------------|------------------------|--7~----------------|
------------8--------|--7--------10----7--10--|--------------------|
---------------------|------------------------|--------------------|
---------------------|------------------------|--------------------|


   Q     E   E   E  E  Q       Q    E  E  E  E   Q     
----------------------------|-------------------------|
----------------------------|-------------------------|
--10----10--10--10--9--7----|--9----9--9--9--7--------|
----------------------------|-------------------10----|
----------------------------|-------------------------|
----------------------------|-------------------------|


  Q    E  E  E  E   Q       H         H            Q    E  E  E  E   Q     
-------------------------|----------------------|-------------------------|
-------------------------|----------------------|-------------------------|
--7----7--7--7--9--10----|----------------------|--7----7--7--7--9--10----|
-------------------------|--7~--------7~--------|-------------------------|
-------------------------|----------------------|-------------------------|
-------------------------|----------------------|-------------------------|


  H         H           H         Q    E   E     W                  
---------------------|------------------------|--------------------|
---------------------|------------------------|--------------------|
--7~-----------------|------------------------|--7~----------------|
------------8--------|--7--------10----7--10--|--------------------|
---------------------|------------------------|--------------------|
---------------------|------------------------|--------------------|


  H         Q.      E      E  E  E  E   H            H        H         
-----------------------|--------------------------|--------------------|
-----------10------10--|--10--8--6--8--10~--------|--5--------8--------|
--7--------------------|--------------------------|--------------------|
-----------------------|--------------------------|--------------------|
-----------------------|--------------------------|--------------------|
-----------------------|--------------------------|--------------------|


  E  E  Q    H           H        H           H        H         
----------------------|--------------------|--------------------|
--6--5-------5--------|--L-----------------|--5--------8--------|
--------7-------------|-----------5--------|--------------------|
----------------------|--------------------|--------------------|
----------------------|--------------------|--------------------|
----------------------|--------------------|--------------------|


  H        E  E  Q       H         Q.      E      E  E  E  E   H          
----------------------|-----------------------|--------------------------|
--6--------5----------|-----------10------10--|--10--8--6--8--10~--------|
--------------7--5----|--7--------------------|--------------------------|
----------------------|-----------------------|--------------------------|
----------------------|-----------------------|--------------------------|
----------------------|-----------------------|--------------------------|


  H        H           E  E  Q    H           H        H         
--------------------|----------------------|--------------------|
--5--------8--------|--6--5-------5--------|--L-----------------|
--------------------|--------7-------------|-----------5--------|
--------------------|----------------------|--------------------|
--------------------|----------------------|--------------------|
--------------------|----------------------|--------------------|


  H        H           H        E  E  Q       H         Q.      E   
--------------------|----------------------|-----------------------|
--5--------8--------|--6--------5----------|-----------10------10--|
--------------------|--------------7--5----|--7--------------------|
--------------------|----------------------|-----------------------|
--------------------|----------------------|-----------------------|
--------------------|----------------------|-----------------------|


   E  E  E  E   H            H        H           E  E  Q    H         
--------------------------|--------------------|----------------------|
--10--8--6--8--10~--------|--5--------8--------|--6--5-------5--------|
--------------------------|--------------------|--------7-------------|
--------------------------|--------------------|----------------------|
--------------------------|--------------------|----------------------|
--------------------------|--------------------|----------------------|


  H        H           H        H           H        E  E  Q     
--------------------|--------------------|----------------------|
--L-----------------|--5--------8--------|--6--------5----------|
-----------5--------|--------------------|--------------7--5----|
--------------------|--------------------|----------------------|
--------------------|--------------------|----------------------|
--------------------|--------------------|----------------------|


  H         Q.      E      E  E  E  E   H            H        H         
-----------------------|--------------------------|--------------------|
-----------10------10--|--10--8--6--8--10~--------|--5--------8--------|
--7--------------------|--------------------------|--------------------|
-----------------------|--------------------------|--------------------|
-----------------------|--------------------------|--------------------|
-----------------------|--------------------------|--------------------|


  E  E  Q    H           H        H           H        H         
----------------------|--------------------|--------------------|
--6--5-------5--------|--L-----------------|--5--------8--------|
--------7-------------|-----------5--------|--------------------|
----------------------|--------------------|--------------------|
----------------------|--------------------|--------------------|
----------------------|--------------------|--------------------|


  H        E  E  Q       H                                                 
----------------------|-----------|-------|-------|-------|-------|-------|
--6--------5----------|-----------|-------|-------|-------|-------|-------|
--------------7--5----|--7--------|-------|-------|-------|-------|-------|
----------------------|-----------|-------|-------|-------|-------|-------|
----------------------|-----------|-------|-------|-------|-------|-------|
----------------------|-----------|-------|-------|-------|-------|-------|


-------|-------|-------|-------|-------|-------|-------|-------|-------|-------|
-------|-------|-------|-------|-------|-------|-------|-------|-------|-------|
-------|-------|-------|-------|-------|-------|-------|-------|-------|-------|
-------|-------|-------|-------|-------|-------|-------|-------|-------|-------|
-------|-------|-------|-------|-------|-------|-------|-------|-------|-------|
-------|-------|-------|-------|-------|-------|-------|-------|-------|-------|


                  H         Q.      E      E  E  E  E   H          
-------|-------|-----------------------|--------------------------|
-------|-------|-----------10------10--|--10--8--6--8--10~--------|
-------|-------|--7--------------------|--------------------------|
-------|-------|-----------------------|--------------------------|
-------|-------|-----------------------|--------------------------|
-------|-------|-----------------------|--------------------------|


  H        H           E  E  Q    H           H        H         
--------------------|----------------------|--------------------|
--5--------8--------|--6--5-------5--------|--L-----------------|
--------------------|--------7-------------|-----------5--------|
--------------------|----------------------|--------------------|
--------------------|----------------------|--------------------|
--------------------|----------------------|--------------------|


  H        H           H        E  E  Q       H         Q.      E   
--------------------|----------------------|-----------------------|
--5--------8--------|--6--------5----------|-----------10------10--|
--------------------|--------------7--5----|--7--------------------|
--------------------|----------------------|-----------------------|
--------------------|----------------------|-----------------------|
--------------------|----------------------|-----------------------|


   E  E  E  E   H            H        H           E  E  Q    H         
--------------------------|--------------------|----------------------|
--10--8--6--8--10~--------|--5--------8--------|--6--5-------5--------|
--------------------------|--------------------|--------7-------------|
--------------------------|--------------------|----------------------|
--------------------------|--------------------|----------------------|
--------------------------|--------------------|----------------------|


  H        H           H        H           H        H         
--------------------|--------------------|--------------------|
--L-----------------|--5--------8--------|--6--------8--------|
-----------5--------|--------------------|--------------------|
--------------------|--------------------|--------------------|
--------------------|--------------------|--------------------|
--------------------|--------------------|--------------------|


   Q     E   E   Q     E   E      E   E  E   E   H          
----------------12----12--12--|--12--10--8--10--12~--------|
--10----10--10----------------|----------------------------|
------------------------------|----------------------------|
------------------------------|----------------------------|
------------------------------|----------------------------|
------------------------------|----------------------------|


  Q    E  E   Q     E   E     E  E   Q    H            Q    E  E  Q    E  E   
--7----7--7--10----10--10--|--8--7--------7~--------|--7----7--7-------------|
---------------------------|--------10--------------|-------------8----8--8--|
---------------------------|------------------------|------------------------|
---------------------------|------------------------|------------------------|
---------------------------|------------------------|------------------------|
---------------------------|------------------------|------------------------|


  Q    E  E   Q     E   E     Q    E  E  E   E  Q     
--7----7--7--10----10--10--|--8----8--8--7-----------|
---------------------------|----------------10--8----|
---------------------------|-------------------------|
---------------------------|-------------------------|
---------------------------|-------------------------|
---------------------------|-------------------------|


   Q     E   E   Q     E   E      E   E  E   E   H          
----------------12----12--12--|--12--10--8--10--12~--------|
--10----10--10----------------|----------------------------|
------------------------------|----------------------------|
------------------------------|----------------------------|
------------------------------|----------------------------|
------------------------------|----------------------------|


  Q    E  E   Q     E   E     E  E   Q    H            Q    E  E  Q    E  E   
--7----7--7--10----10--10--|--8--7--------7~--------|--7----7--7-------------|
---------------------------|--------10--------------|-------------8----8--8--|
---------------------------|------------------------|------------------------|
---------------------------|------------------------|------------------------|
---------------------------|------------------------|------------------------|
---------------------------|------------------------|------------------------|


  Q    E  E   Q     E   E     Q    E  E  E   E  Q        H                  
--7----7--7--10----10--10--|--8----8--8--7-----------|-------------|-------|
---------------------------|----------------10--8----|--10~--------|-------|
---------------------------|-------------------------|-------------|-------|
---------------------------|-------------------------|-------------|-------|
---------------------------|-------------------------|-------------|-------|
---------------------------|-------------------------|-------------|-------|


-------|-------|-------|-------|-------|-------|-------|-------|-------|-------|
-------|-------|-------|-------|-------|-------|-------|-------|-------|-------|
-------|-------|-------|-------|-------|-------|-------|-------|-------|-------|
-------|-------|-------|-------|-------|-------|-------|-------|-------|-------|
-------|-------|-------|-------|-------|-------|-------|-------|-------|-------|
-------|-------|-------|-------|-------|-------|-------|-------|-------|-------|


                                           Q     E   E   E  E  Q     
-------|-------|-------|-------|-------|----------------------------|
-------|-------|-------|-------|-------|--10----10--10--10--8--6----|
-------|-------|-------|-------|-------|----------------------------|
-------|-------|-------|-------|-------|----------------------------|
-------|-------|-------|-------|-------|----------------------------|
-------|-------|-------|-------|-------|----------------------------|


  Q    E  E  E  E  Q       Q    E  E  E  E  Q       W                  
------------------------|-------------------5----|--------------------|
--8----8--8--8--6--5----|--6----6--6--6--8-------|--5~----------------|
------------------------|------------------------|--------------------|
------------------------|------------------------|--------------------|
------------------------|------------------------|--------------------|
------------------------|------------------------|--------------------|


  Q    E  E  E  E  Q       H         Q    E  E     H        Q    E  E   
-------------------5----|-----------------------|----------------------|
--6----6--6--6--8-------|--6~--------3----6--5--|--6--------5----6--5--|
------------------------|-----------------------|----------------------|
------------------------|-----------------------|----------------------|
------------------------|-----------------------|----------------------|
------------------------|-----------------------|----------------------|


  W                     Q     E   E   E  E  E   E     Q    E  E  E  E  Q     
--------------------|------------------------------|------------------------|
--3~----------------|--10----10--10--10--8--6--10--|--8----8--8--8--6--5----|
--------------------|------------------------------|------------------------|
--------------------|------------------------------|------------------------|
--------------------|------------------------------|------------------------|
--------------------|------------------------------|------------------------|


  Q    E  E  E  E  E  E     H         E  E  Q       Q    E  E  E  E  Q     
-------------------5-----|-----------------------|-------------------5----|
--6----6--6--6--8-----6--|--5~--------L--3--5----|--6----6--6--6--8-------|
-------------------------|-----------------------|------------------------|
-------------------------|-----------------------|------------------------|
-------------------------|-----------------------|------------------------|
-------------------------|-----------------------|------------------------|


  H         H           H         H            W                  
---------------------|----------------------|--------------------|
--6~--------3--------|--6~--------5~--------|--3~----------------|
---------------------|----------------------|--------------------|
---------------------|----------------------|--------------------|
---------------------|----------------------|--------------------|
---------------------|----------------------|--------------------|


   Q     E   E   E  E  Q       Q    E  E  E  E  Q       Q    E  E  E  E  Q     
----------------------------|------------------------|-------------------5----|
--10----10--10--10--8--6----|--8----8--8--8--6--5----|--6----6--6--6--8-------|
----------------------------|------------------------|------------------------|
----------------------------|------------------------|------------------------|
----------------------------|------------------------|------------------------|
----------------------------|------------------------|------------------------|


  W                    Q    E  E  E  E  Q       H.            E  E   
--------------------|-------------------5----|--6~------------5-----|
--5~----------------|--6----6--6--6--8-------|-------------------8--|
--------------------|------------------------|----------------------|
--------------------|------------------------|----------------------|
--------------------|------------------------|----------------------|
--------------------|------------------------|----------------------|


  H        Q    E  E     W                     Q     E   E   E  E  E   E   
--5-------------5-----|--------------------|------------------------------|
-----------8-------8--|--6~----------------|--10----10--10--10--8--6--10--|
----------------------|--------------------|------------------------------|
----------------------|--------------------|------------------------------|
----------------------|--------------------|------------------------------|
----------------------|--------------------|------------------------------|


  Q    E  E  E  E  Q       Q    E  E  E  E  E  E     H         E  E  Q     
------------------------|-------------------5-----|-----------------------|
--8----8--8--8--6--5----|--6----6--6--6--8-----6--|--5~--------L--3--5----|
------------------------|-------------------------|-----------------------|
------------------------|-------------------------|-----------------------|
------------------------|-------------------------|-----------------------|
------------------------|-------------------------|-----------------------|


  Q    E  E  E  E  Q       H         H           H         H          
-------------------5----|---------------------|----------------------|
--6----6--6--6--8-------|--6~--------3--------|--6~--------5~--------|
------------------------|---------------------|----------------------|
------------------------|---------------------|----------------------|
------------------------|---------------------|----------------------|
------------------------|---------------------|----------------------|


  W                                                          
--------------------|-------------------|-------------------|
--3~----------------|-------------------|-------------------|
--------------------|-------------------|-------------------|
--------------------|-------------------|-------------------|
--------------------|-------------------|-------------------|
--------------------|-------------------|-------------------|


-------------------|-------------------|-------------------|-------------------|
-------------------|-------------------|-------------------|-------------------|
-------------------|-------------------|-------------------|-------------------|
-------------------|-------------------|-------------------|-------------------|
-------------------|-------------------|-------------------|-------------------|
-------------------|-------------------|-------------------|-------------------|


-------------------|-------------------|-------------------|-------------------|
-------------------|-------------------|-------------------|-------------------|
-------------------|-------------------|-------------------|-------------------|
-------------------|-------------------|-------------------|-------------------|
-------------------|-------------------|-------------------|-------------------|
-------------------|-------------------|-------------------|-------------------|


-------------------|-------------------|-------------------|-------------------|
-------------------|-------------------|-------------------|-------------------|
-------------------|-------------------|-------------------|-------------------|
-------------------|-------------------|-------------------|-------------------|
-------------------|-------------------|-------------------|-------------------|
-------------------|-------------------|-------------------|-------------------|


-------------------|-------------------|-------------------|-------------------|
-------------------|-------------------|-------------------|-------------------|
-------------------|-------------------|-------------------|-------------------|
-------------------|-------------------|-------------------|-------------------|
-------------------|-------------------|-------------------|-------------------|
-------------------|-------------------|-------------------|-------------------|


-------------------|-------------------|-------------------|-------------------|
-------------------|-------------------|-------------------|-------------------|
-------------------|-------------------|-------------------|-------------------|
-------------------|-------------------|-------------------|-------------------|
-------------------|-------------------|-------------------|-------------------|
-------------------|-------------------|-------------------|-------------------|


-------------------|-------------------|-------------------|-------------------|
-------------------|-------------------|-------------------|-------------------|
-------------------|-------------------|-------------------|-------------------|
-------------------|-------------------|-------------------|-------------------|
-------------------|-------------------|-------------------|-------------------|
-------------------|-------------------|-------------------|-------------------|


-------------------|-------------------|-------------------|-------------------|
-------------------|-------------------|-------------------|-------------------|
-------------------|-------------------|-------------------|-------------------|
-------------------|-------------------|-------------------|-------------------|
-------------------|-------------------|-------------------|-------------------|
-------------------|-------------------|-------------------|-------------------|


                                           Q     E   E   E  E  Q     
-------------------|-------------------|----------------------------|
-------------------|-------------------|--10----10--10--10--8--6----|
-------------------|-------------------|----------------------------|
-------------------|-------------------|----------------------------|
-------------------|-------------------|----------------------------|
-------------------|-------------------|----------------------------|


  Q    E  E  E  E  Q       Q    E  E  E  E  Q       W                  
------------------------|-------------------5----|--------------------|
--8----8--8--8--6--5----|--6----6--6--6--8-------|--5~----------------|
------------------------|------------------------|--------------------|
------------------------|------------------------|--------------------|
------------------------|------------------------|--------------------|
------------------------|------------------------|--------------------|


  Q    E  E  E  E  Q       H         Q    E  E     H        Q    E  E   
-------------------5----|-----------------------|----------------------|
--6----6--6--6--8-------|--6~--------3----6--5--|--6--------5----6--5--|
------------------------|-----------------------|----------------------|
------------------------|-----------------------|----------------------|
------------------------|-----------------------|----------------------|
------------------------|-----------------------|----------------------|


  W                     Q     E   E   E  E  E   E     Q    E  E  E  E  Q     
--------------------|------------------------------|------------------------|
--3~----------------|--10----10--10--10--8--6--10--|--8----8--8--8--6--5----|
--------------------|------------------------------|------------------------|
--------------------|------------------------------|------------------------|
--------------------|------------------------------|------------------------|
--------------------|------------------------------|------------------------|


  Q    E  E  E  E  E  E     H         E  E  Q       Q    E  E  E  E  Q     
-------------------5-----|-----------------------|-------------------5----|
--6----6--6--6--8-----6--|--5~--------L--3--5----|--6----6--6--6--8-------|
-------------------------|-----------------------|------------------------|
-------------------------|-----------------------|------------------------|
-------------------------|-----------------------|------------------------|
-------------------------|-----------------------|------------------------|


  H         H           H         H            W                  
---------------------|----------------------|--------------------|
--6~--------3--------|--6~--------5~--------|--3~----------------|
---------------------|----------------------|--------------------|
---------------------|----------------------|--------------------|
---------------------|----------------------|--------------------|
---------------------|----------------------|--------------------|


   Q     E   E   E  E  Q       Q    E  E  E  E  Q       Q    E  E  E  E  Q     
----------------------------|------------------------|-------------------5----|
--10----10--10--10--8--6----|--8----8--8--8--6--5----|--6----6--6--6--8-------|
----------------------------|------------------------|------------------------|
----------------------------|------------------------|------------------------|
----------------------------|------------------------|------------------------|
----------------------------|------------------------|------------------------|


  W                    Q    E  E  E  E  Q       H.            E  E   
--------------------|-------------------5----|--6~------------5-----|
--5~----------------|--6----6--6--6--8-------|-------------------8--|
--------------------|------------------------|----------------------|
--------------------|------------------------|----------------------|
--------------------|------------------------|----------------------|
--------------------|------------------------|----------------------|


  H        Q    E  E     W                     Q     E   E   E  E  E   E   
--5-------------5-----|--------------------|------------------------------|
-----------8-------8--|--6~----------------|--10----10--10--10--8--6--10--|
----------------------|--------------------|------------------------------|
----------------------|--------------------|------------------------------|
----------------------|--------------------|------------------------------|
----------------------|--------------------|------------------------------|


  Q    E  E  E  E  Q       Q    E  E  E  E  E  E     H         E  E  Q     
------------------------|-------------------5-----|-----------------------|
--8----8--8--8--6--5----|--6----6--6--6--8-----6--|--5~--------L--3--5----|
------------------------|-------------------------|-----------------------|
------------------------|-------------------------|-----------------------|
------------------------|-------------------------|-----------------------|
------------------------|-------------------------|-----------------------|


  Q    E  E  E  E  Q       H         Q    E  E     H        Q    E  E   
-------------------5----|-----------------------|----------------------|
--6----6--6--6--8-------|--6~--------3----6--5--|--6--------5----6--5--|
------------------------|-----------------------|----------------------|
------------------------|-----------------------|----------------------|
------------------------|-----------------------|----------------------|
------------------------|-----------------------|----------------------|


  W                                       
--------------------|-------------------||
--3~----------------|-------------------||
--------------------|-------------------||
--------------------|-------------------||
--------------------|-------------------||
--------------------|-------------------||




Duration Legend
---------------
W - whole
H - half
Q - quarter
E - 8th
S - 16th
T - 32nd
X - 64th
. - note dotted
|-n-|  - n-tuplets


Tablature Legend
----------------
L - tied note
x - dead note
g - grace note
(n) - ghost note
> - accentuded note
NH - natural harmonic
AH - artificial harmonic
TH - tapped harmonic
SH - semi harmonic
PH - pitch harmonic
h - hammer on
p - pull off
b - bend
br - bendRelease
pb - preBend
pbr - preBendRelease
brb - bendReleaseBend
\n/ - tremolo bar dip
\n - tremolo bar dive
-/n - tremolo bar Release up
/n\ - tremolo bar inverted dip
/n - tremolo bar return
-\n - tremolo bar Release down
S - shift slide
s - legato slide
/ -  slide into from below or out of upwards
\ -  slide into from above or out of downwards
~ - vibrato
W - wide vibrato
tr - trill
TP - tremolo picking
T - tapping
S - slap
P - pop
< - fade in
^ - brush up
v - brush down

            
            
Suggest correction
Creating personal tab
Creating personal tab
You can edit any tab online and save it as your Personal.

You can edit, replace or remove any tab part or add personal notes – all changes will be seen only by you.

Personal tabs can be accessed anytime from any device, even offline.
Learn more »
Give kudos to tab author, rate the tab!
1 2 3 4 5
comments
print report bad tab
1 comment total.
0 reply
dimmu05 10 Feb 07, 2009 09:48 AM

excellent, but you should have rhythm and lead together so it would be easier to match them up. But anyway, great tab.

guest
You may want to rate the tab now too:
select rating
Wanna post a correction for this tab? Suggest correction