Oops, an error
Loading. Please wait.

Treacherous Gods tab

version 2
version 2

Whole song

Interactive

4,096 views 1 this week
3 commentsread comments
1 2 3 4 5
x 4
add to favorites
×
Save as Personal and add changes to this tab that will be seen only by you. Learn more ›
×
You can save this tab as Personal to edit and correct it or add notes. All changes will be seen only by you. Learn more »
launch autoscroll
font size
0
reset
how to read this tab
guitar tuner
edit
Autoscroll
slow
fast
+/-
esc
set tempo
stop
                               Treacherous Gods                                 


                                                                       Ensiferum
Rhythm Guitar



                             W                Q       W                Q     
E||-------|-------|-------|------------------------|------------------------|
B||-------|-------|-------|------------------------|------------------------|
G||-------|-------|-------|------------------------|------------------------|
D||-------|-------|-------|------------------------|------------------------|
A||-------|-------|-------|------------------------|------------------------|
E||-------|-------|-------|------------------------|------------------------|


  W                Q       W                Q     
------------------------|------------------------|
------------------------|------------------------|
------------------------|------------------------|
------------------------|------------------------|
------------------------|------------------------|
------------------------|------------------------|


  E  E  E  E  E  E  E  E  E  E     E  E  E  E  E  E  E  E  E  E   
--------------------------------|--------------------------------|
--------------------------------|--------------------------------|
--------------------------------|--------------------------------|
--5--5--5-----5--------5-----5--|--6--6--6-----6--------6-----6--|
--3--3--3-----3--------3-----3--|--3--3--3-----3--------3-----3--|
--------------------------------|--------------------------------|


  E  E  E  E  E  E  E  E  E  E     E  E  E  E  E  E  E  Q.      
--------------------------------|------------------------------|
--------------------------------|------------------------------|
--------------------------------|------------------------------|
--5--5--5-----5--------5-----5--|--3--3--3-----3--------3------|
--3--3--3-----3--------3-----3--|--1--1--1-----1--------1------|
--------------------------------|------------------------------|


  E  E  E  E  E  E  E  E  E  E     E  E  E  E  E  E  E  E  E  E   
--------------------------------|--------------------------------|
--------8-----8--------8-----8--|--------9-----9--------9-----9--|
--5--5-----5-----5--5-----5-----|--5--5-----5-----5--5-----5-----|
--------------------------------|--------------------------------|
--------------------------------|--------------------------------|
--------------------------------|--------------------------------|


  E  E  E  E  E  E  E  E  E  E     E  E  E  E  E  E  E  E  E  E   
--------------------------------|--------------------------------|
--------8-----8--------8-----8--|--------6-----6--------6-----6--|
--5--5-----5-----5--5-----5-----|--3--3-----3-----3--3-----3-----|
--------------------------------|--------------------------------|
--------------------------------|--------------------------------|
--------------------------------|--------------------------------|


  E  E  E  E  E  E  E  E  E  E     E  E  E  E  E  E  E  E  E  E   
--------------------------------|--------------------------------|
--------8-----8--------8-----8--|--------9-----9--------9-----9--|
--5--5-----5-----5--5-----5-----|--5--5-----5-----5--5-----5-----|
--------------------------------|--------------------------------|
--------------------------------|--------------------------------|
--------------------------------|--------------------------------|


  E  E  E  E  E  E  E  E  E  E     E  E  E  E  E  E  E  E  E  E   
--------------------------------|--------------------------------|
--------8-----8--------8-----8--|--------6-----6--------6-----6--|
--5--5-----5-----5--5-----5-----|--3--3-----3-----3--3-----3-----|
--------------------------------|--------------------------------|
--------------------------------|--------------------------------|
--------------------------------|--------------------------------|


  E  E  E  E  E  E  E  E  E  E     E  E  E  E  E  E  E  E  E  E   
--------------------------------|--------------------------------|
--------8-----8--------8-----8--|--------9-----9--------9-----9--|
--5--5-----5-----5--5-----5-----|--5--5-----5-----5--5-----5-----|
--------------------------------|--------------------------------|
--------------------------------|--------------------------------|
--------------------------------|--------------------------------|


  E  E  E  E  E  E  E  E  E  E     E  E  E  E  E  E  E  E  E  E   
--------------------------------|--------------------------------|
--------8-----8--------8-----8--|--------6-----6--------6-----6--|
--5--5-----5-----5--5-----5-----|--3--3-----3-----3--3-----3-----|
--------------------------------|--------------------------------|
--------------------------------|--------------------------------|
--------------------------------|--------------------------------|


  E  E  E  E  E  E  E  E  E  E     E  E  E  E  E  E  E  E  E  E   
--------------------------------|--------------------------------|
--------8-----8--------8-----8--|--------9-----9--------9-----9--|
--5--5-----5-----5--5-----5-----|--5--5-----5-----5--5-----5-----|
--------------------------------|--------------------------------|
--------------------------------|--------------------------------|
--------------------------------|--------------------------------|


  E  E  E  E  E  E  E  E  E  E     E  E  E  E  E  E  H         
--------------------------------|-----------------------------|
--------8-----8--------8-----8--|-----------6-----------------|
--5--5-----5-----5--5-----5-----|--3--3--3-----3--3-----------|
--------------------------------|-----------------------------|
--------------------------------|--------------------3--------|
--------------------------------|-----------------------------|


  W                Q       W                Q       W                 
------------------------|------------------------|-------------------|
------------------------|------------------------|-------------------|
------------------------|------------------------|-------------------|
------------------------|------------------------|--5----------------|
--L----------------L----|--L----------------L----|--3----------------|
------------------------|------------------------|-------------------|


   W                   W                   W                 
--------------------|-------------------|-------------------|
--------------------|-------------------|-------------------|
--------------------|-------------------|-------------------|
--10----------------|-------------------|--3----------------|
---8----------------|--6----------------|--1----------------|
--------------------|--4----------------|-------------------|


  W                   H        H           W                 
-------------------|--------------------|-------------------|
-------------------|--------------------|-------------------|
-------------------|--------------------|-------------------|
--5----------------|--------------------|-------------------|
--3----------------|--3--------5--------|--6----------------|
-------------------|--1--------3--------|--4----------------|


                      |--3--|  |--3--|  |--3--|  |--3--|   
  W                   E  E  E  E  E  E  E  E  E  E  E  E   
-------------------|--------------------------------------|
-------------------|--------------------------------------|
-------------------|--------------------------------------|
--3----------------|--5--5--5--5--5--5--5--5--5--5--5--5--|
--1----------------|--3--3--3--3--3--3--3--3--3--3--3--3--|
-------------------|--------------------------------------|


  |--3--|  |--3--|  |--3--|  |--3--|     |--3--|  |--3--|  |--3--|  |--3--|   
  E  E  E  E  E  E  E  E  E  E  E  E     E  E  E  E  E  E  E  E  E  E  E  E   
--------------------------------------|--------------------------------------|
--------------------------------------|--------------------------------------|
--------------------------------------|--------------------------------------|
--------------------------------------|--------------------------------------|
--3--3--3--3--3--3--3--3--3--3--3--3--|--6--6--6--6--6--6--6--6--6--6--6--6--|
--1--1--1--1--1--1--1--1--1--1--1--1--|--4--4--4--4--4--4--4--4--4--4--4--4--|


  |--3--|  |--3--|  |--3--|  |--3--|     |--3--|  |--3--|  |--3--|  |--3--|   
  E  E  E  E  E  E  E  E  E  E  E  E     E  E  E  E  E  E  E  E  E  E  E  E   
--------------------------------------|--------------------------------------|
--------------------------------------|--------------------------------------|
--------------------------------------|--------------------------------------|
--3--3--3--3--3--3--3--3--3--3--3--3--|--5--5--5--5--5--5--5--5--5--5--5--5--|
--1--1--1--1--1--1--1--1--1--1--1--1--|--3--3--3--3--3--3--3--3--3--3--3--3--|
--------------------------------------|--------------------------------------|


  |--3--|  |--3--|  |--3--|  |--3--|     |--3--|  |--3--|  |--3--|  |--3--|   
  E  E  E  E  E  E  E  E  E  E  E  E     E  E  E  E  E  E  E  E  E  E  E  E   
--------------------------------------|--------------------------------------|
--------------------------------------|--------------------------------------|
--------------------------------------|--------------------------------------|
--------------------------------------|--------------------------------------|
--3--3--3--3--3--3--3--3--3--3--3--3--|--6--6--6--6--6--6--6--6--6--6--6--6--|
--1--1--1--1--1--1--1--1--1--1--1--1--|--4--4--4--4--4--4--4--4--4--4--4--4--|


  |--3--|  |--3--|                   |--3--|       |--3--|   
  E  E  E  E  E  E  H           Q    E  E  E  Q    E  E  E   
-----------------------------|------------------------------|
-----------------------------|------------------------------|
-----------------------------|------------------------------|
--3--3--3--3--3--3--5--------|----------------5----5--5--5--|
--1--1--1--1--1--1--3--------|--3----3--3--3--3----3--3--3--|
-----------------------------|--1----1--1--1----------------|


       |--3--|       |--3--|          |--3--|       |--3--|   
  Q    E  E  E  Q    E  E  E     Q    E  E  E  Q    E  E  E   
------------------------------|------------------------------|
------------------------------|------------------------------|
------------------------------|------------------------------|
--3----3--3--3--5----5--5--5--|----------------5----5--5--5--|
--1----1--1--1--3----3--3--3--|--3----3--3--3--3----3--3--3--|
------------------------------|--1----1--1--1----------------|


       |--3--|       |--3--|     |--3-|  |--3--|  |--3-|  |--3--|   
  Q    E  E  E  Q    E  E  E     Q    E  E  E  E  Q    E  E  E  E   
------------------------------|------------------------------------|
------------------------------|------------------------------------|
------------------------------|------------------------------------|
--3----3--3--3--5----5--5--5--|-------------------5----5--5--5--5--|
--1----1--1--1--3----3--3--3--|--3----3--3--3--3--3----3--3--3--3--|
------------------------------|--1----1--1--1--1-------------------|


  |--3-|  |--3--|              |--3-|  |--3--|  |--3-|  |--3--|   
  Q    E  E  E  E  H           Q    E  E  E  E  Q    E  E  E  E   
----------------------------|------------------------------------|
----------------------------|------------------------------------|
----------------------------|------------------------------------|
--3----3--3--3--3--5--------|-------------------5----5--5--5--5--|
--1----1--1--1--1--3--------|--3----3--3--3--3--3----3--3--3--3--|
----------------------------|--1----1--1--1--1-------------------|


  |--3-|  |--3--|                     |--3--|  |--3--|  |--3--|  |--3--|   
  Q    E  E  E  E  H        Q         E  E  E  E  E  E  E  E  E  E  E  E   
---------------------------------||---------------------------------------|
---------------------------------||---------------------------------------|
---------------------------------||*--------------------------------------|
--3----3--3--3--3--5-------------||*-----------------5--3--3--3--3--------|
--1----1--1--1--1--3-------------||---3--3--3--3--6-----------------6--5--|
---------------------------------||---------------------------------------|


  |--3--|  |--3--|                 |--3--|  |--3--|  |--3--|  |--3--|   
  E  E  E  E  E  E  Q    Q     3x  E  E  E  E  E  E  E  E  E  E  E  E   
-------------------------------||--------------------------------------|
-------------------------------||--------------------------------------|
------------------------------*||--------------------------------------|
------------------------------*||-----------------5--3--3--3--3--------|
--6--6--6--6--5--3--8----8-----||--3--3--3--3--6-----------------6--5--|
--------------------6----6-----||--------------------------------------|


  |--3--|  |--3--|                                                     
  E  E  E  E  E  E  Q    Q       W                   W                 
------------------------------|-------------------|-------------------|
------------------------------|-------------------|-------------------|
------------------------------|-------------------|-------------------|
------------------------------|--5----------------|-------------------|
--6--6--6--6--5--3--8----8----|--3----------------|--5----------------|
--------------------6----6----|-------------------|--3----------------|


                                          |--3-|  |--3--|  |--3-|  |--3--|   
  W                   W                   Q    E  E  E  E  Q    E  E  E  E   
-------------------|-------------------|------------------------------------|
-------------------|-------------------|------------------------------------|
-------------------|-------------------|------------------------------------|
--3----------------|-------------------|------------------------------------|
--1----------------|--3----------------|--6----6--6--6--6--6----6--6--6--6--|
-------------------|--1----------------|--4----4--4--4--4--4----4--4--4--4--|


  |--3-|  |--3--|  |--3-|  |--3--|     |--3-|  |--3--|  |--3-|  |--3--|   
  Q    E  E  E  E  Q    E  E  E  E     Q    E  E  E  E  Q    E  E  E  E   
------------------------------------|------------------------------------|
------------------------------------|------------------------------------|
------------------------------------|------------------------------------|
------------------------------------|--5----5--5--5--5--5----5--5--5--5--|
--8----8--8--8--8--8----8--8--8--8--|--3----3--3--3--3--3----3--3--3--3--|
--6----6--6--6--6--6----6--6--6--6--|------------------------------------|


  |--3-|  |--3--|       |--3--|     |--3-|  |--3--|  |--3-|  |--3--|   
  Q    E  E  E  E  Q    E  E  E     Q    E  E  E  E  Q    E  E  E  E   
---------------------------------|------------------------------------|
---------------------------------|------------------------------------|
---------------------------------|------------------------------------|
--5----5--5--5--5--5-------------|--5----5--5--5--5--5----5--5--5--5--|
--3----3--3--3--3--3----5--5--5--|--3----3--3--3--3--3----3--3--3--3--|
------------------------3--3--3--|------------------------------------|


  |--3-|  |--3--|  |--3-|  |--3--|     |--3-|  |--3--|  |--3-|  |--3--|   
  Q    E  E  E  E  Q    E  E  E  E     Q    E  E  E  E  Q    E  E  E  E   
------------------------------------|------------------------------------|
------------------------------------|------------------------------------|
------------------------------------|------------------------------------|
------------------------------------|--3----3--3--3--3--3----3--3--3--3--|
--5----5--5--5--5--5----5--5--5--5--|--1----1--1--1--1--1----1--1--1--1--|
--3----3--3--3--3--3----3--3--3--3--|------------------------------------|


  |--3-|  |--3--|  |--3-|  |--3--|     |--3-|  |--3--|  |--3-|  |--3--|   
  Q    E  E  E  E  Q    E  E  E  E     Q    E  E  E  E  Q    E  E  E  E   
------------------------------------|------------------------------------|
------------------------------------|------------------------------------|
------------------------------------|------------------------------------|
------------------------------------|------------------------------------|
--3----3--3--3--3--3----3--3--3--3--|--6----6--6--6--6--6----6--6--6--6--|
--1----1--1--1--1--1----1--1--1--1--|--4----4--4--4--4--4----4--4--4--4--|


  |--3-|  |--3--|  |--3-|  |--3--|     |--3-|  |--3--|  |--3-|  |--3--|   
  Q    E  E  E  E  Q    E  E  E  E     Q    E  E  E  E  Q    E  E  E  E   
------------------------------------|------------------------------------|
------------------------------------|------------------------------------|
------------------------------------|------------------------------------|
------------------------------------|--5----5--5--5--5--5----5--5--5--5--|
--8----8--8--8--8--8----8--8--8--8--|--3----3--3--3--3--3----3--3--3--3--|
--6----6--6--6--6--6----6--6--6--6--|------------------------------------|


  |--3--|  |--3--|  |--3--|  |--3--|          |--3--|       |--3--|   
  E  E  E  E  E  E  E  E  E  E  E  E     Q    E  E  E  Q    E  E  E   
--------------------------------------|------------------------------|
--------------------------------------|------------------------------|
--------------------------------------|------------------------------|
-----------3--------------------------|----------------5----5--5--5--|
--3--5--6-----6--5--6--5--3--5--3-----|--3----3--3--3--3----3--3--3--|
-----------------------------------6--|--1----1--1--1----------------|


       |--3--|       |--3--|          |--3--|       |--3--|   
  Q    E  E  E  Q    E  E  E     Q    E  E  E  Q    E  E  E   
------------------------------|------------------------------|
------------------------------|------------------------------|
------------------------------|------------------------------|
--3----3--3--3--5----5--5--5--|----------------5----5--5--5--|
--1----1--1--1--3----3--3--3--|--3----3--3--3--3----3--3--3--|
------------------------------|--1----1--1--1----------------|


       |--3--|       |--3--|          |--3--|       |--3--|   
  Q    E  E  E  Q    E  E  E     Q    E  E  E  Q    E  E  E   
------------------------------|------------------------------|
------------------------------|------------------------------|
------------------------------|------------------------------|
--3----3--3--3--5----5--5--5--|----------------5----5--5--5--|
--1----1--1--1--3----3--3--3--|--3----3--3--3--3----3--3--3--|
------------------------------|--1----1--1--1----------------|


       |--3--|       |--3--|          |--3--|       |--3--|   
  Q    E  E  E  Q    E  E  E     Q    E  E  E  Q    E  E  E   
------------------------------|------------------------------|
------------------------------|------------------------------|
------------------------------|------------------------------|
--3----3--3--3--5----5--5--5--|----------------5----5--5--5--|
--1----1--1--1--3----3--3--3--|--3----3--3--3--3----3--3--3--|
------------------------------|--1----1--1--1----------------|


       |--3--|       |--3--|       |--3--|  |--3--|  |--3--|  |--3--|   
  Q    E  E  E  Q    E  E  E       E  E  E  E  E  E  E  E  E  E  E  E   
------------------------------||---------------------------------------|
------------------------------||---------------------------------------|
------------------------------||*--------------------------------------|
--3----3--3--3--5----5--5--5--||*-----------------5--3--3--3--3--------|
--1----1--1--1--3----3--3--3--||---3--3--3--3--6-----------------6--5--|
------------------------------||---------------------------------------|


  |--3--|  |--3--|                 |--3--|  3  3                 
  E  E  E  E  E  E  Q    Q         E  E  E  E  W                 
-------------------------------||-------------------------------|
-------------------------------||-------------------------------|
------------------------------*||-------------------------------|
------------------------------*||--5--5--5--5-------------------|
--6--6--6--6--5--3--8----8-----||--3--3--3--3-------------------|
--------------------6----6-----||-------------------------------|


       |--3--|  |-3|    |--3--|     |--3--|  3  3                 
  Q    E  E  E  E  Q    E  E  E     E  E  E  E  W                 
---------------------------------|-------------------------------|
---------------------------------|-------------------------------|
---------------------------------|-------------------------------|
---------------------------------|--3--3--3--3-------------------|
-------5--5--5--5-------5--5--5--|--1--1--1--1-------------------|
-------3--3--3--3-------3--3--3--|-------------------------------|


       |--3--|  |--3-|  |--3--|     |--3-|  |--3--|  |--3-|  |--3--|   
  Q    E  E  E  Q    E  E  E  E     Q    E  E  E  E  Q    E  E  E  E   
---------------------------------|------------------------------------|
---------------------------------|------------------------------------|
---------------------------------|------------------------------------|
---------------------------------|------------------------------------|
-------3--3--3--3----3--3--3--3--|--6----6--6--6--6--6----6--6--6--6--|
-------1--1--1--1----1--1--1--1--|--4----4--4--4--4--4----4--4--4--4--|


  |--3-|  |--3--|  |--3-|  |--3--|     |--3-|  |--3--|  |--3-|  |--3--|   
  Q    E  E  E  E  Q    E  E  E  E     Q    E  E  E  E  Q    E  E  E  E   
------------------------------------|------------------------------------|
------------------------------------|------------------------------------|
------------------------------------|------------------------------------|
------------------------------------|--5----5--5--5--5--5----5--5--5--5--|
--8----8--8--8--8--8----8--8--8--8--|--3----3--3--3--3--3----3--3--3--3--|
--6----6--6--6--6--6----6--6--6--6--|------------------------------------|


  |--3-|  |--3--|  |--3-|  |--3--|     |--3--|  3  3                 
  Q    E  E  E  E  Q    E  E  E  E     E  E  E  E  W                 
------------------------------------|-------------------------------|
------------------------------------|-------------------------------|
------------------------------------|-------------------------------|
--5----5--5--5--5--5----5--5--5--5--|--5--5--5--5-------------------|
--3----3--3--3--3--3----3--3--3--3--|--3--3--3--3-------------------|
------------------------------------|-------------------------------|


       |--3--|  |-3|    |--3--|     |--3--|  3  3                 
  Q    E  E  E  E  Q    E  E  E     E  E  E  E  W                 
---------------------------------|-------------------------------|
---------------------------------|-------------------------------|
---------------------------------|-------------------------------|
---------------------------------|--3--3--3--3-------------------|
-------5--5--5--5-------5--5--5--|--1--1--1--1-------------------|
-------3--3--3--3-------3--3--3--|-------------------------------|


       |--3--|  |--3-|  |--3--|     |--3-|  |--3--|  |--3-|  |--3--|   
  Q    E  E  E  Q    E  E  E  E     Q    E  E  E  E  Q    E  E  E  E   
---------------------------------|------------------------------------|
---------------------------------|------------------------------------|
---------------------------------|------------------------------------|
---------------------------------|------------------------------------|
-------3--3--3--3----3--3--3--3--|--6----6--6--6--6--6----6--6--6--6--|
-------1--1--1--1----1--1--1--1--|--4----4--4--4--4--4----4--4--4--4--|


  |--3-|  |--3--|  |--3-|  |--3--|     |--3-|  |--3--|  |--3-|  |--3--|   
  Q    E  E  E  E  Q    E  E  E  E     Q    E  E  E  E  Q    E  E  E  E   
------------------------------------|------------------------------------|
------------------------------------|------------------------------------|
------------------------------------|------------------------------------|
------------------------------------|--5----5--5--5--5--5----5--5--5--5--|
--8----8--8--8--8--8----8--8--8--8--|--3----3--3--3--3--3----3--3--3--3--|
--6----6--6--6--6--6----6--6--6--6--|------------------------------------|


  |--3--|  |--3--|  |--3--|  |--3--|          |--3--|       |--3--|   
  E  E  E  E  E  E  E  E  E  E  E  E     Q    E  E  E  Q    E  E  E   
--------------------------------------|------------------------------|
--------------------------------------|------------------------------|
--------------------------------------|------------------------------|
-----------3--------------------------|----------------5----5--5--5--|
--3--5--6-----6--5--6--5--3--5--3-----|--3----3--3--3--3----3--3--3--|
-----------------------------------6--|--1----1--1--1----------------|


       |--3--|       |--3--|          |--3--|       |--3--|   
  Q    E  E  E  Q    E  E  E     Q    E  E  E  Q    E  E  E   
------------------------------|------------------------------|
------------------------------|------------------------------|
------------------------------|------------------------------|
--3----3--3--3--5----5--5--5--|----------------5----5--5--5--|
--1----1--1--1--3----3--3--3--|--3----3--3--3--3----3--3--3--|
------------------------------|--1----1--1--1----------------|


       |--3--|       |--3--|     |--3-|  |--3--|  |--3-|  |--3--|   
  Q    E  E  E  Q    E  E  E     Q    E  E  E  E  Q    E  E  E  E   
------------------------------|------------------------------------|
------------------------------|------------------------------------|
------------------------------|------------------------------------|
--3----3--3--3--5----5--5--5--|-------------------5----5--5--5--5--|
--1----1--1--1--3----3--3--3--|--3----3--3--3--3--3----3--3--3--3--|
------------------------------|--1----1--1--1--1-------------------|


  |--3-|  |--3--|              |--3-|  |--3--|  |--3-|  |--3--|   
  Q    E  E  E  E  H           Q    E  E  E  E  Q    E  E  E  E   
----------------------------|------------------------------------|
----------------------------|------------------------------------|
----------------------------|------------------------------------|
--3----3--3--3--3--5--------|-------------------5----5--5--5--5--|
--1----1--1--1--1--3--------|--3----3--3--3--3--3----3--3--3--3--|
----------------------------|--1----1--1--1--1-------------------|


  |--3-|  |--3--|                |--3--|  |--3--|  |--3--|  |--3--|   
  Q    E  E  E  E  H             E  E  E  E  E  E  E  E  E  E  E  E   
----------------------------||---------------------------------------|
----------------------------||---------------------------------------|
----------------------------||*--------------------------------------|
--3----3--3--3--3--5--------||*--5--5--5--5--5--5--5--5--5--5--5--5--|
--1----1--1--1--1--3--------||---3--3--3--3--3--3--3--3--3--3--3--3--|
----------------------------||---------------------------------------|


  |--3--|  |--3--|  |--3--|  |--3--|     |--3--|  |--3--|  |--3--|  |--3--|   
  E  E  E  E  E  E  E  E  E  E  E  E     E  E  E  E  E  E  E  E  E  E  E  E   
--------------------------------------|--------------------------------------|
--------------------------------------|--------------------------------------|
--------------------------------------|--------------------------------------|
--6--6--6--6--6--6--6--6--6--6--6--6--|--5--5--5--5--5--5--5--5--5--5--5--5--|
--3--3--3--3--3--3--3--3--3--3--3--3--|--6--6--6--6--6--6--6--6--6--6--6--6--|
--------------------------------------|--------------------------------------|


  |--3--|  |--3--|  |--3--|  |--3--|       |--3--|  |--3--|       |--3--|   
  E  E  E  E  E  E  E  E  E  E  E  E       E  E  E  E  E  E  Q    E  E  E   
---------------------------------------||----------------------------------|
---------------------------------------||----------------------------------|
--------------------------------------*||----------------------------------|
--3--3--3--3--3--3--3--3--3--3--3--3--*||-----------3--1--0-------0--0--0--|
--1--1--1--1--1--1--1--1--1--1--1--1---||--1--1--1-----------3-------------|
---------------------------------------||----------------------------------|


  W                   H.                W                 4x  W                 
-------------------|---------------||---------------------||-------------------|
-------------------|---------------||---------------------||-------------------|
-------------------|---------------||*-------------------*||-------------------|
-------------------|---------------||*-------------------*||--5----------------|
--3----------------|--L------------||---------------------||--3----------------|
-------------------|---------------||---------------------||-------------------|


  W                   H        H           Q    Q    Q    Q     
-------------------|--------------------|----------------------|
-------------------|--------------------|----------------------|
-------------------|--------------------|----------------------|
--5----------------|--5--------5--------|--5----5----5----5----|
--3----------------|--3--------3--------|--3----3----3----3----|
-------------------|--------------------|----------------------|


  E  S S E  S S E  S S E  S S    E  S S E  S S E  S S E  S S  
------------------------------|------------------------------|
------------------------------|------------------------------|
------------------------------|------------------------------|
--5--5-5-5--5-5-5--5-5-5--5-5-|------------------------------|
--3--3-3-3--3-3-3--3-3-3--3-3-|--5--5-5-5--5-5-5--5-5-5--5-5-|
------------------------------|--3--3-3-3--3-3-3--3-3-3--3-3-|


  E  S S E  S S E  S S E  S S    Q    Q    H         
------------------------------|---------------------|
------------------------------|---------------------|
------------------------------|---------------------|
--3--3-3-3--3-3---------------|--5---------5--------|
--1--1-1-1--1-1-3--3-3-3--3-3-|--3----5----3--------|
----------------1--1-1-1--1-1-|-------3-------------|


  E  S S E  S S E  S S E  S S    E  S S E  S S E  S S E  S S  
------------------------------|------------------------------|
------------------------------|------------------------------|
------------------------------|------------------------------|
--5--5-5-5--5-5-5--5-5-5--5-5-|------------------------------|
--3--3-3-3--3-3-3--3-3-3--3-3-|--5--5-5-5--5-5-5--5-5-5--5-5-|
------------------------------|--3--3-3-3--3-3-3--3-3-3--3-3-|


  E  S S E  S S E  S S E  S S    Q    Q    H         
------------------------------|---------------------|
------------------------------|---------------------|
------------------------------|---------------------|
--3--3-3-3--3-3---------------|--5---------5--------|
--1--1-1-1--1-1-3--3-3-3--3-3-|--3----5----3--------|
----------------1--1-1-1--1-1-|-------3-------------|


  E  S S S S S S S S S S S S S S    E  S S S S S S S S S S S S S S  
---------------------------------|---------------------------------|
---------------------------------|---------------------------------|
---------------------------------|---------------------------------|
--5--5-5-5-5-5-5-5-5-5-5-5-5-5-5-|---------------------------------|
--3--3-3-3-3-3-3-3-3-3-3-3-3-3-3-|--5--5-5-5-5-5-5-5-5-5-5-5-5-5-5-|
---------------------------------|--3--3-3-3-3-3-3-3-3-3-3-3-3-3-3-|


  E  S S S S S S E  S S S S S S    Q    Q    H         
--------------------------------|---------------------|
--------------------------------|---------------------|
--------------------------------|---------------------|
--3--3-3-3-3-3-3----------------|--5---------5--------|
--1--1-1-1-1-1-1-3--3-3-3-3-3-3-|--3----5----3--------|
-----------------1--1-1-1-1-1-1-|-------3-------------|


  E  S S S S S S S S S S S S S S    E  S S S S S S S S S S S S S S  
---------------------------------|---------------------------------|
---------------------------------|---------------------------------|
---------------------------------|---------------------------------|
--5--5-5-5-5-5-5-5-5-5-5-5-5-5-5-|---------------------------------|
--3--3-3-3-3-3-3-3-3-3-3-3-3-3-3-|--5--5-5-5-5-5-5-5-5-5-5-5-5-5-5-|
---------------------------------|--3--3-3-3-3-3-3-3-3-3-3-3-3-3-3-|


  E  S S S S S S E  S S S S S S    Q    Q    H           W                 
--------------------------------|---------------------|-------------------|
--------------------------------|---------------------|-------------------|
--------------------------------|---------------------|-------------------|
--3--3-3-3-3-3-3----------------|--5---------5--------|-------------------|
--1--1-1-1-1-1-1-3--3-3-3-3-3-3-|--3----5----3--------|--3----------------|
-----------------1--1-1-1-1-1-1-|-------3-------------|--1----------------|


  W                   W                   W                   W                 
-------------------|-------------------|-------------------|-------------------|
-------------------|-------------------|-------------------|-------------------|
-------------------|-------------------|-------------------|-------------------|
--5----------------|--3----------------|--5----------------|-------------------|
--3----------------|--1----------------|--3----------------|--3----------------|
-------------------|-------------------|-------------------|--1----------------|


  W                   W                   E  S S S S S S S S S S S S S S  
-------------------|-------------------|---------------------------------|
-------------------|-------------------|---------------------------------|
-------------------|-------------------|---------------------------------|
--5----------------|--3----------------|--5--5-5-5-5-5-5-5-5-5-5-5-5-5-5-|
--3----------------|--1----------------|--3--3-3-3-3-3-3-3-3-3-3-3-3-3-3-|
-------------------|-------------------|---------------------------------|


  E  S S S S E  S S S S E  S S    E  S S S S E  S S S S E  S S  
-------------------------------|-------------------------------|
-------------------------------|-------------------------------|
-------------------------------|-------------------------------|
-------------------------------|--5----------5----------5------|
--3----------3----------3------|--3--3-3-3-3-3--3-3-3-3-3--3-3-|
--1--1-1-1-1-1--1-1-1-1-1--1-1-|-------------------------------|


  E  S S S S E  S S S S E  S S    E  S S S S S S E  S S E  S S  
-------------------------------|-------------------------------|
-------------------------------|-------------------------------|
-------------------------------|-------------------------------|
--3----------3----------3------|--5--------------5------5------|
--1--1-1-1-1-1--1-1-1-1-1--1-1-|--3--3-3-3-3-3-3-3--3-3-3--3-3-|
-------------------------------|-------------------------------|


  S S S S S S S S S S S S S S S S    S S S S S S S S S S S S S S S S  
----------------------------------|----------------------------------|
----------------------------------|----------------------------------|
----------------------------------|----------------------------------|
----------------------------------|--5-5-5-5-5-5-5-5-5-5-5-5-5-5-5-5-|
--3-3-3-3-3-3-3-3-3-3-3-3-3-3-3-3-|--3-3-3-3-3-3-3-3-3-3-3-3-3-3-3-3-|
--1-1-1-1-1-1-1-1-1-1-1-1-1-1-1-1-|----------------------------------|


  S S S S S S S S S S S S S S S S    W                 
----------------------------------|-------------------|
----------------------------------|-------------------|
----------------------------------|-------------------|
--3-3-3-3-3-3-3-3-3-3-3-3-3-3-3-3-|--5----------------|
--1-1-1-1-1-1-1-1-1-1-1-1-1-1-1-1-|--3----------------|
----------------------------------|-------------------|


    S S S S S S S S S S S S S S S S    S S S S S S S S S S S S S S S S  
|-----------------------------------|----------------------------------|
|-----------------------------------|----------------------------------|
|*----------------------------------|----------------------------------|
|*--5-5-5-5-5-5-5-5-5-5-5-5-5-5-5-5-|----------------------------------|
|---3-3-3-3-3-3-3-3-3-3-3-3-3-3-3-3-|--5-5-5-5-5-5-5-5-5-5-5-5-5-5-5-5-|
|-----------------------------------|--3-3-3-3-3-3-3-3-3-3-3-3-3-3-3-3-|


  S S S S S S S S S S S S S S S S    Q    Q    H           
----------------------------------|----------------------||
----------------------------------|----------------------||
----------------------------------|---------------------*||
--8-8-8-8-8-8-8-8-----------------|--5---------5--------*||
--6-6-6-6-6-6-6-6-8-8-8-8-8-8-8-8-|--3----5----3---------||
------------------6-6-6-6-6-6-6-6-|-------3--------------||


  Q    Q    H           W                   W                 
---------------------|-------------------|-------------------|
---------------------|-------------------|-------------------|
---------------------|-------------------|-------------------|
--5---------5--------|--5----------------|-------------------|
--3----5----3--------|--3----------------|--5----------------|
-------3-------------|-------------------|--3----------------|


  H        H           Q    Q    H           E  S S S S S S S S S S S S S S  
--------------------|---------------------|---------------------------------|
--------------------|---------------------|---------------------------------|
--------------------|---------------------|---------------------------------|
--8-----------------|--5---------5--------|--5--5-5-5-5-5-5-5-5-5-5-5-5-5-5-|
--6--------8--------|--3----5----3--------|--3--3-3-3-3-3-3-3-3-3-3-3-3-3-3-|
-----------6--------|-------3-------------|---------------------------------|


  E  S S S S S S S S S S S S S S    E  S S S S S S E  S S S S S S  
---------------------------------|--------------------------------|
---------------------------------|--------------------------------|
---------------------------------|--------------------------------|
---------------------------------|--8--8-8-8-8-8-8----------------|
--5--5-5-5-5-5-5-5-5-5-5-5-5-5-5-|--6--6-6-6-6-6-6-8--8-8-8-8-8-8-|
--3--3-3-3-3-3-3-3-3-3-3-3-3-3-3-|-----------------6--6-6-6-6-6-6-|


  Q    Q    H          
---------------------||
---------------------||
---------------------||
--5---------5--------||
--3----5----3--------||
-------3-------------||





Lead Guitar



     W                Q       W                Q       W                Q     
E||------------------------|------------------------|------------------------|
B||------------------------|------------------------|------------------------|
G||------------------------|------------------------|------------------------|
D||------------------------|------------------------|------------------------|
A||------------------------|------------------------|------------------------|
E||------------------------|------------------------|------------------------|


  E  E  E  E  E  E  E  E  E  E     E  E  E  E  E  E  E  E  E  E   
--------------------------------|--------------------------------|
--------------------------------|--------------------------------|
--------------------------------|--------------------------------|
--------5-----5--------5-----5--|--------6--3--6--------6--3--6--|
--3--3-----6-----3--3-----6-----|--3--3-----------3--3-----------|
--------------------------------|--------------------------------|


  E  E  E  E  E  E  E  E  E  E     E  E  E  E  E  E  E  E  E  E   
--------------------------------|--------------------------------|
--------------------------------|--------------------------------|
--------------------------------|--------------------------------|
--------5-----5--------5-----5--|--------3--1--3--------3--1--3--|
--3--3-----6-----3--3-----6-----|--1--1-----------1--1-----------|
--------------------------------|--------------------------------|


  E  E  E  E  E  E  E  E  E  E     E  E  E  E  E  E  E  E  E  E   
--------------------------------|--------------------------------|
--------------------------------|--------------------------------|
--------------------------------|--------------------------------|
--------5-----5--------5-----5--|--------6--3--6--------6--3--6--|
--3--3-----6-----3--3-----6-----|--3--3-----------3--3-----------|
--------------------------------|--------------------------------|


  E  E  E  E  E  E  E  E  E  E     E  E  E  E  E  E  E  E  E  E   
--------------------------------|--------------------------------|
--------------------------------|--------------------------------|
--------------------------------|--------------------------------|
--------5-----5--------5-----5--|--------3--1--3--------3--1--3--|
--3--3-----6-----3--3-----6-----|--1--1-----------1--1-----------|
--------------------------------|--------------------------------|


  E  E  E  E  E  E  E  E  E  E     E  E  E  E  E  E  E  E  E  E   
--------------------------------|--------------------------------|
--------------------------------|--------------------------------|
--------------------------------|--------------------------------|
--------5-----5--------5-----5--|--------6--3--6--------6--3--6--|
--3--3-----6-----3--3-----6-----|--3--3-----------3--3-----------|
--------------------------------|--------------------------------|


  E  E  E  E  E  E  E  E  E  E     E  E  E  E  E  E  E  E  E  E   
--------------------------------|--------------------------------|
--------------------------------|--------------------------------|
--------------------------------|--------------------------------|
--------5-----5--------5-----5--|--------3--1--3--------3--1--3--|
--3--3-----6-----3--3-----6-----|--1--1-----------1--1-----------|
--------------------------------|--------------------------------|


  E  E  E  E  E  E  E  E  E  E     E  E  E  E  E  E  E  E  E  E   
--------------------------------|--------------------------------|
--------------------------------|--------------------------------|
--------------------------------|--------------------------------|
--------5-----5--------5-----5--|--------6--3--6--------6--3--6--|
--3--3-----6-----3--3-----6-----|--3--3-----------3--3-----------|
--------------------------------|--------------------------------|


  E  E  E  E  E  E  E  E  E  E     E  E  E  E  E  E  E  E  E  E   
--------------------------------|--------------------------------|
--------------------------------|--------------------------------|
--------------------------------|--------------------------------|
--------5-----5--------5-----5--|--------3--1--3--------3--1--3--|
--3--3-----6-----3--3-----6-----|--1--1-----------1--1-----------|
--------------------------------|--------------------------------|


  E  E  E  E  E  E  E  E  E  E     E  E  E  E  E  E  E  E  E  E   
--------------------------------|--------------------------------|
--------------------------------|--------------------------------|
--------------------------------|--------------------------------|
--------5-----5--------5-----5--|--------6--3--6--------6--3--6--|
--3--3-----6-----3--3-----6-----|--3--3-----------3--3-----------|
--------------------------------|--------------------------------|


  E  E  E  E  E  E  E  E  E  E     E  E  E  E  E  E  E  E  E  E   
--------------------------------|--------------------------------|
--------------------------------|--------------------------------|
--------------------------------|--------------------------------|
--------5-----5--------5-----5--|--------3--1--3--------3--1--3--|
--3--3-----6-----3--3-----6-----|--1--1-----------1--1-----------|
--------------------------------|--------------------------------|


  E  E  E  E  E  E  E  E  E  E     E  E  E  E  E  E  E  E  E  E   
--------------------------------|--------------------------------|
--------------------------------|--------------------------------|
--------------------------------|--------------------------------|
--------5-----5--------5-----5--|--------6--3--6--------6--3--6--|
--3--3-----6-----3--3-----6-----|--3--3-----------3--3-----------|
--------------------------------|--------------------------------|


  E  E  E  E  E  E  E  E  E  E     E  E  E  E  E  E  H         
--------------------------------|-----------------------------|
--------------------------------|-----------------------------|
--------------------------------|-----------------------------|
--------5-----5--------5-----5--|-----------3--1--------------|
--3--3-----6-----3--3-----6-----|--1--1--1--------5--3--------|
--------------------------------|-----------------------------|


  W                Q       W                Q     
------------------------|------------------------|
------------------------|------------------------|
------------------------|------------------------|
------------------------|------------------------|
--L----------------L----|--L----------------L----|
------------------------|------------------------|


  |--3--|  |--3--|  |--3--|  |--3--|     |--3--|  |--3--|  |--3--|  |--3--|   
  E  E  E  E  E  E  E  E  E  E  E  E     E  E  E  E  E  E  E  E  E  E  E  E   
--------------------------------------|--------------------------------------|
--------------------------------------|--------------------------------------|
--------------------------------------|--------------------------------------|
-----------5-----5-----------5-----5--|-----------6--3--6-----------6--3--6--|
--3--3--3-----6-----3--3--3-----6-----|--3--3--3-----------3--3--3-----------|
--------------------------------------|--------------------------------------|


  |--3--|  |--3--|  |--3--|  |--3--|     |--3--|  |--3--|  |--3--|  |--3--|   
  E  E  E  E  E  E  E  E  E  E  E  E     E  E  E  E  E  E  E  E  E  E  E  E   
--------------------------------------|--------------------------------------|
--------------------------------------|--------------------------------------|
--------------------------------------|--------------------------------------|
-----------5-----5-----------5-----5--|-----------3--1--3-----------3--1--3--|
--3--3--3-----6-----3--3--3-----6-----|--1--1--1-----------1--1--1-----------|
--------------------------------------|--------------------------------------|


  |--3--|  |--3--|  |--3--|  |--3--|     |--3--|  |--3--|  |--3--|  |--3--|   
  E  E  E  E  E  E  E  E  E  E  E  E     E  E  E  E  E  E  E  E  E  E  E  E   
--------------------------------------|--------------------------------------|
--------------------------------------|--------------------------------------|
--------------------------------------|--------------------------------------|
-----------5-----5-----------5-----5--|-----------6--3--6-----------6--3--6--|
--3--3--3-----6-----3--3--3-----6-----|--3--3--3-----------3--3--3-----------|
--------------------------------------|--------------------------------------|


  |--3--|  |--3--|  |--3--|  |--3--|     |--3--|  |--3--|  |--3--|  |--3--|   
  E  E  E  E  E  E  E  E  E  E  E  E     E  E  E  E  E  E  E  E  E  E  E  E   
--------------------------------------|--------------------------------------|
--------------------------------------|--------------------------------------|
--------------------------------------|--------------------------------------|
-----------5-----5-----------5-----5--|-----------3--1--3-----------3--1--3--|
--3--3--3-----6-----3--3--3-----6-----|--1--1--1-----------1--1--1-----------|
--------------------------------------|--------------------------------------|


  |--3--|  |--3--|  |--3--|  |--3--|     |--3--|  |--3--|  |--3--|  |--3--|   
  E  E  E  E  E  E  E  E  E  E  E  E     E  E  E  E  E  E  E  E  E  E  E  E   
--------------------------------------|--------------------------------------|
--------------------------------------|--------------------------------------|
--------------------------------------|--------------------------------------|
-----------5-----5-----------5-----5--|-----------6--3--6-----------6--3--6--|
--3--3--3-----6-----3--3--3-----6-----|--3--3--3-----------3--3--3-----------|
--------------------------------------|--------------------------------------|


  |--3--|  |--3--|  |--3--|  |--3--|     |--3--|  |--3--|  |--3--|  |--3--|   
  E  E  E  E  E  E  E  E  E  E  E  E     E  E  E  E  E  E  E  E  E  E  E  E   
--------------------------------------|--------------------------------------|
--------------------------------------|--------------------------------------|
--------------------------------------|--------------------------------------|
-----------5-----5-----------5-----5--|-----------3--1--0-----------0--1--3--|
--3--3--3-----6-----3--3--3-----6-----|--1--1--1-----------1--1--1-----------|
--------------------------------------|--------------------------------------|


  |--3--|  |--3--|  |--3--|  |--3--|     |--3--|  |--3--|  |--3--|  |--3--|   
  E  E  E  E  E  E  E  E  E  E  E  E     E  E  E  E  E  E  E  E  E  E  E  E   
--------------------------------------|--------------------------------------|
--------------------------------------|--------------------------------------|
--------------------------------------|--------------------------------------|
-----------5-----5-----------5-----5--|-----------6--3--6-----------6--3--6--|
--3--3--3-----6-----3--3--3-----6-----|--3--3--3-----------3--3--3-----------|
--------------------------------------|--------------------------------------|


  |--3--|  |--3--|  |--3--|  |--3--|     |--3--|  |--3--|            
  E  E  E  E  E  E  E  E  E  E  E  E     E  E  E  E  E  E  H         
--------------------------------------|-----------------------------|
--------------------------------------|-----------------------------|
--------------------------------------|-----------------------------|
-----------5-----5-----------5-----5--|-----------3--1--0-----------|
--3--3--3-----6-----3--3--3-----6-----|--1--1--1-----------3--------|
--------------------------------------|-----------------------------|


       |--3--|                      |---3---|            
  Q    E  E  E  Q    Q        Q     E   E   E  H         
--------------------------|-----------------------------|
--------------------------|-----------------------------|
--------------------------|-----------------------------|
--------------------------|-----------------------------|
--8----8--8--8--6---------|-----------------------------|
---------------------8----|--10----10--10--10--8--------|


       |--3--|                      |---3---|            
  Q    E  E  E  Q    Q        Q     E   E   E  H         
--------------------------|-----------------------------|
--------------------------|-----------------------------|
--------------------------|-----------------------------|
--------------------------|-----------------------------|
--8----8--8--8--6---------|-----------------------------|
---------------------8----|--10----10--10--10--8--------|


       |---3--|                      |---3---|            
  Q    E   E  E  Q    Q        Q     E   E   E  H         
---------------------------|-----------------------------|
---------------------------|-----------------------------|
---------------------------|-----------------------------|
---------------------------|-----------------------------|
--8----8--10--8--6---------|-----------------------------|
----------------------8----|--10----10--11--10--8--------|


       |--3--|                      |---3---|                 
  Q    E  E  E  Q    Q        Q     E   E   E  H        Q     
--------------------------|----------------------------------|
--------------------------|----------------------------------|
--------------------------|----------------------------------|
--------------------------|----------------------------------|
--8----8--8--8--6---------|----------------------------------|
---------------------8----|--10----10--10--10--8-------------|


     |---3---|   |---3---|   |---3---|   |---3---|   
     E   E   E   E   E   E   E   E   E   E   E   E   
|---------------------------------------------------|
|---------------------------------------------------|
|*----------------------12--10--10--10--10----------|
|*--10--10--10--10--13----------------------13--12--|
|---------------------------------------------------|
|---------------------------------------------------|


   |---3---|   |---3---|                 
   E   E   E   E   E   E   Q     Q     3x
---------------------------------------||
---------------------------------------||
--------------------------------------*||
--13--13--13--13--12--10--12----------*||
--------------------------------13-----||
---------------------------------------||


   |---3---|   |---3---|   |---3---|   |---3---|   
   E   E   E   E   E   E   E   E   E   E   E   E   
--------------------------------------------------|
--------------------------------------------------|
----------------------12--10--10--10--10----------|
--10--10--10--10--13----------------------13--12--|
--------------------------------------------------|
--------------------------------------------------|


   |---3---|   |---3---|                                    
   E   E   E   E   E   E   Q     Q       H.           Q     
--------------------------------------|--------------------|
--------------------------------------|--------------------|
--------------------------------------|--------------------|
--13--13--13--13--12--10--12----------|--------------------|
--------------------------------13----|--3------------6----|
--------------------------------------|--------------------|


  H        H           H        Q    Q       W                 
--------------------|---------------------|-------------------|
--------------------|---------------------|-------------------|
--------------------|---------------------|-------------------|
--------------------|--3------------------|-------------------|
--5-----------------|-----------6----5----|--3----------------|
-----------6--------|---------------------|-------------------|


  H        Q    Q       H        H           W                 
---------------------|--------------------|-------------------|
---------------------|--------------------|-------------------|
---------------------|--------------------|-------------------|
---------------------|--------------------|-------------------|
--6--------3----6----|--5-----------------|--3----------------|
---------------------|-----------6--------|-------------------|


  W                   H.           Q       H        H         
-------------------|--------------------|--------------------|
-------------------|--------------------|--------------------|
-------------------|--------------------|--------------------|
-------------------|--------------------|--------------------|
--L----------------|--3------------6----|--5-----------------|
-------------------|--------------------|-----------6--------|


  H        Q    Q       W                   H        Q    Q     
---------------------|-------------------|---------------------|
---------------------|-------------------|---------------------|
---------------------|-------------------|---------------------|
--3------------------|-------------------|---------------------|
-----------6----5----|--3----------------|--6--------3----6----|
---------------------|-------------------|---------------------|


                                           |--3--|  |--3--|  |--3--|  |--3--|   
  H        H           W                   E  E  E  E  E  E  E  E  E  E  E  E   
--------------------|-------------------|--------------------------------------|
--------------------|-------------------|--------------------------------------|
--------------------|-------------------|--------------------------------------|
--------------------|-------------------|-----------3--------------------------|
--5-----------------|--3----------------|--3--5--6-----6--5--6--5--3--5--3-----|
-----------6--------|-------------------|-----------------------------------6--|


       |--3--|                      |---3---|            
  Q    E  E  E  Q    Q        Q     E   E   E  H         
--------------------------|-----------------------------|
--------------------------|-----------------------------|
--------------------------|-----------------------------|
--------------------------|-----------------------------|
--8----8--8--8--6---------|-----------------------------|
---------------------8----|--10----10--10--10--8--------|


       |--3--|                      |---3---|            
  Q    E  E  E  Q    Q        Q     E   E   E  H         
--------------------------|-----------------------------|
--------------------------|-----------------------------|
--------------------------|-----------------------------|
--------------------------|-----------------------------|
--8----8--8--8--6---------|-----------------------------|
---------------------8----|--10----10--10--10--8--------|


       |--3--|                      |---3---|            
  Q    E  E  E  Q    Q        Q     E   E   E  H         
--------------------------|-----------------------------|
--------------------------|-----------------------------|
--------------------------|-----------------------------|
--------------------------|-----------------------------|
--8----8--8--8--6---------|-----------------------------|
---------------------8----|--10----10--10--10--8--------|


       |--3--|                      |---3---|            
  Q    E  E  E  Q    Q        Q     E   E   E  H         
--------------------------|-----------------------------|
--------------------------|-----------------------------|
--------------------------|-----------------------------|
--------------------------|-----------------------------|
--8----8--8--8--6---------|-----------------------------|
---------------------8----|--10----10--10--10--8--------|


     |---3---|   |---3---|   |---3---|   |---3---|   
     E   E   E   E   E   E   E   E   E   E   E   E   
|---------------------------------------------------|
|---------------------------------------------------|
|*----------------------12--10--10--10--10----------|
|*--10--10--10--10--13----------------------13--12--|
|---------------------------------------------------|
|---------------------------------------------------|


   |---3---|   |---3---|                   |--3--|  3  3                 
   E   E   E   E   E   E   Q     Q         E  E  E  E  W                 
---------------------------------------||-------------------------------|
---------------------------------------||-------------------------------|
--------------------------------------*||-------------------------------|
--13--13--13--13--12--10--12----------*||--5--5--5--5-------------------|
--------------------------------13-----||--3--3--3--3-------------------|
---------------------------------------||-------------------------------|


       |--3--|  |-3|    |--3--|     |--3--|  3  3                 
  Q    E  E  E  E  Q    E  E  E     E  E  E  E  W                 
---------------------------------|-------------------------------|
---------------------------------|-------------------------------|
---------------------------------|-------------------------------|
---------------------------------|--3--3--3--3-------------------|
-------5--5--5--5-------5--5--5--|--1--1--1--1-------------------|
-------3--3--3--3-------3--3--3--|-------------------------------|


       |--3--|  |--3-|  |--3--|                                              
  Q    E  E  E  Q    E  E  E  E     H        Q    Q       H        H         
---------------------------------|---------------------|--------------------|
---------------------------------|---------------------|--------------------|
---------------------------------|---------------------|--------------------|
---------------------------------|---------------------|--------------------|
-------3--3--3--3----3--3--3--3--|--6--------3----6----|--5-----------------|
-------1--1--1--1----1--1--1--1--|---------------------|-----------6--------|


                                          |--3--|  3  3                 
  W                   W                   E  E  E  E  W                 
-------------------|-------------------|-------------------------------|
-------------------|-------------------|-------------------------------|
-------------------|-------------------|-------------------------------|
-------------------|-------------------|--5--5--5--5-------------------|
--3----------------|--L----------------|--3--3--3--3-------------------|
-------------------|-------------------|-------------------------------|


       |--3--|  |-3|    |--3--|     |--3--|  3  3                 
  Q    E  E  E  E  Q    E  E  E     E  E  E  E  W                 
---------------------------------|-------------------------------|
---------------------------------|-------------------------------|
---------------------------------|-------------------------------|
---------------------------------|--3--3--3--3-------------------|
-------5--5--5--5-------5--5--5--|--1--1--1--1-------------------|
-------3--3--3--3-------3--3--3--|-------------------------------|


       |--3--|  |--3-|  |--3--|                                              
  Q    E  E  E  Q    E  E  E  E     H        Q    Q       H        H         
---------------------------------|---------------------|--------------------|
---------------------------------|---------------------|--------------------|
---------------------------------|---------------------|--------------------|
---------------------------------|---------------------|--3-----------------|
-------3--3--3--3----3--3--3--3--|--6--------3----6----|-----------5--------|
-------1--1--1--1----1--1--1--1--|---------------------|--------------------|


                      |--3--|  |--3--|  |--3--|  |--3--|   
  W                   E  E  E  E  E  E  E  E  E  E  E  E   
-------------------|--------------------------------------|
-------------------|--------------------------------------|
-------------------|--------------------------------------|
-------------------|-----------3--------------------------|
--3----------------|--3--5--6-----6--5--6--5--3--5--3-----|
-------------------|-----------------------------------6--|


       |--3--|                      |---3---|            
  Q    E  E  E  Q    Q        Q     E   E   E  H         
--------------------------|-----------------------------|
--------------------------|-----------------------------|
--------------------------|-----------------------------|
--------------------------|-----------------------------|
--8----8--8--8--6---------|-----------------------------|
---------------------8----|--10----10--10--10--8--------|


       |--3--|                      |---3---|            
  Q    E  E  E  Q    Q        Q     E   E   E  H         
--------------------------|-----------------------------|
--------------------------|-----------------------------|
--------------------------|-----------------------------|
--------------------------|-----------------------------|
--8----8--8--8--6---------|-----------------------------|
---------------------8----|--10----10--10--10--8--------|


         |---3---|                       |---3---|             
   Q     E   E   E  Q     Q        Q     E   E   E   H         
-------------------------------|------------------------------|
-------------------------------|------------------------------|
--10----10--12--10--8----------|------------------------------|
-------------------------10----|--12----12--13--12--10--------|
-------------------------------|------------------------------|
-------------------------------|------------------------------|


         |---3---|                       |---3---|             
   Q     E   E   E  Q     Q        Q     E   E   E   H         
-------------------------------|------------------------------|
-------------------------------|------------------------------|
--10----10--10--10--8----------|------------------------------|
-------------------------10----|--12----12--12--12--10--------|
-------------------------------|------------------------------|
-------------------------------|------------------------------|


    |--3--|  |--3--|  |--3--|  |--3--|     |--3--|  |--3--|  |--3--|  |--3--|   
    E  E  E  E  E  E  E  E  E  E  E  E     E  E  E  E  E  E  E  E  E  E  E  E   
|---------------------------------------|--------------------------------------|
|---------------------------------------|--------------------------------------|
|*--------------------------------------|--------------------------------------|
|*-----------5-----5-----------5-----5--|-----------6--3--6-----------6--3--6--|
|---3--3--3-----6-----3--3--3-----6-----|--3--3--3-----------3--3--3-----------|
|---------------------------------------|--------------------------------------|


  |--3--|  |--3--|  |--3--|  |--3--|     |--3--|  |--3--|  |--3--|  |--3--|     
  E  E  E  E  E  E  E  E  E  E  E  E     E  E  E  E  E  E  E  E  E  E  E  E     
--------------------------------------|---------------------------------------||
--------------------------------------|---------------------------------------||
--------------------------------------|--------------------------------------*||
-----------5-----5-----------5-----5--|-----------3--1--3-----------3--1--3--*||
--3--3--3-----6-----3--3--3-----6-----|--1--1--1-----------1--1--1------------||
--------------------------------------|---------------------------------------||


  |--3--|  |--3--|       |--3--|                                       
  E  E  E  E  E  E  Q    E  E  E     W                   H.            
----------------------------------|-------------------|---------------|
----------------------------------|-------------------|---------------|
----------------------------------|-------------------|---------------|
-----------3--1--0-------0--0--0--|-------------------|---------------|
--1--1--1-----------3-------------|--3----------------|--L------------|
----------------------------------|-------------------|---------------|


    E  S S E  S S E  S S E  S S  4x  E  S S E  S S E  S S E  S S  
|--------------------------------||------------------------------|
|--------------------------------||------------------------------|
|*------------------------------*||------------------------------|
|*--5--5-5-5--5-5-5--5-5-5--5-5-*||--5--5-5-5--5-5-5--5-5-5--5-5-|
|---3--3-3-3--3-3-3--3-3-3--3-3--||--3--3-3-3--3-3-3--3-3-3--3-3-|
|--------------------------------||------------------------------|


  E  S S E  S S E  S S E  S S    E  S S E  S S E  S S E  S S  
------------------------------|------------------------------|
------------------------------|------------------------------|
------------------------------|------------------------------|
--5--5-5-5--5-5-5--5-5-5--5-5-|--5--5-5-5--5-5-5--5-5-5--5-5-|
--3--3-3-3--3-3-3--3-3-3--3-3-|--3--3-3-3--3-3-3--3-3-3--3-3-|
------------------------------|------------------------------|


  E  S S E  S S E  S S E  S S    H.           E  S S    E  S S H        E  S S  
------------------------------|----------------------|-------------------------|
------------------------------|----------------------|-------------------------|
------------------------------|--5------------7--8-8-|--7--5-5----------7--8-8-|
--5--5-5-5--5-5-5--5-5-5--5-5-|----------------------|---------8---------------|
--3--3-3-3--3-3-3--3-3-3--3-3-|----------------------|-------------------------|
------------------------------|----------------------|-------------------------|


  E  S S Q    Q    E  E     E  E  E  E  H           H.           E  S S  
-------------------------|-----------------------|----------------------|
--6----------------------|-----------------------|----------------------|
-----8-8-7---------5--7--|--8--7--5--4--5--------|--5------------7--8-8-|
--------------8----------|-----------------------|----------------------|
-------------------------|-----------------------|----------------------|
-------------------------|-----------------------|----------------------|


  E  S S H        E  S S    E  S S Q    Q    E  E     E  E  E  E  H         
-------------------------|-------------------------|-----------------------|
-------------------------|--6----------------------|-----------------------|
--7--5-5----------7--8-8-|-----8-8-7---------5--7--|--8--7--5--4--5--------|
---------8---------------|--------------8----------|-----------------------|
-------------------------|-------------------------|-----------------------|
-------------------------|-------------------------|-----------------------|


  S S S S S S S S S S S S S S S S    S S S S S S S S S S S S S S S S  
----------------------------------|----------------------------------|
----------------------------------|----------------------------------|
--5-5-5-5-5-5-5-5-5-5-5-5-7-7-8-8-|--7-7-5-5-----------------7-7-8-8-|
----------------------------------|----------8-8-8-8-8-8-8-8---------|
----------------------------------|----------------------------------|
----------------------------------|----------------------------------|


  S S S S S S S S S S S S S S S S    S S S S S S S S H         
----------------------------------|---------------------------|
--6-6-----------------------------|---------------------------|
------8-8-7-7-7-7---------5-5-7-7-|--8-8-7-7-5-5-4-4-5--------|
------------------8-8-8-8---------|---------------------------|
----------------------------------|---------------------------|
----------------------------------|---------------------------|


  S S S S S S S S S S S S S S S S    S S S S S S S S S S S S S S S S  
----------------------------------|----------------------------------|
----------------------------------|----------------------------------|
--5-5-5-5-5-5-5-5-5-5-5-5-7-7-8-8-|--7-7-5-5-----------------7-7-8-8-|
----------------------------------|----------8-8-8-8-8-8-8-8---------|
----------------------------------|----------------------------------|
----------------------------------|----------------------------------|


  S S S S S S S S S S S S S S S S    S S S S S S S S H         
----------------------------------|---------------------------|
--6-6-----------------------------|---------------------------|
------8-8-7-7-7-7---------5-5-7-7-|--8-8-7-7-5-5-4-4-5--------|
------------------8-8-8-8---------|---------------------------|
----------------------------------|---------------------------|
----------------------------------|---------------------------|


  W                   W                   W                   W                 
-------------------|-------------------|-------------------|-------------------|
-------------------|-------------------|-------------------|-------------------|
-------------------|-------------------|-------------------|-------------------|
-------------------|--5----------------|--3----------------|--5----------------|
--3----------------|--3----------------|--1----------------|--3----------------|
--1----------------|-------------------|-------------------|-------------------|


  W                   W                   W                 
-------------------|-------------------|-------------------|
-------------------|-------------------|-------------------|
-------------------|-------------------|-------------------|
-------------------|--5----------------|--3----------------|
--3----------------|--3----------------|--1----------------|
--1----------------|-------------------|-------------------|


  E  S S S S S S S S S S S S S S    E  S S S S E  S S S S E  S S  
---------------------------------|-------------------------------|
---------------------------------|-------------------------------|
---------------------------------|-------------------------------|
--5--5-5-5-5-5-5-5-5-5-5-5-5-5-5-|-------------------------------|
--3--3-3-3-3-3-3-3-3-3-3-3-3-3-3-|--3----------3----------3------|
---------------------------------|--1--1-1-1-1-1--1-1-1-1-1--1-1-|


  E  S S S S E  S S S S E  S S    E  S S S S E  S S S S E  S S  
-------------------------------|-------------------------------|
-------------------------------|-------------------------------|
-------------------------------|-------------------------------|
--5----------5----------5------|--3----------3----------3------|
--3--3-3-3-3-3--3-3-3-3-3--3-3-|--1--1-1-1-1-1--1-1-1-1-1--1-1-|
-------------------------------|-------------------------------|


  E  S S S S S S E  S S E  S S    S S S S S S S S S S S S S S S S  
-------------------------------|----------------------------------|
-------------------------------|----------------------------------|
-------------------------------|----------------------------------|
--5--------------5------5------|----------------------------------|
--3--3-3-3-3-3-3-3--3-3-3--3-3-|--3-3-3-3-3-3-3-3-3-3-3-3-3-3-3-3-|
-------------------------------|--1-1-1-1-1-1-1-1-1-1-1-1-1-1-1-1-|


  S S S S S S S S S S S S S S S S    S S S S S S S S S S S S S S S S  
----------------------------------|----------------------------------|
----------------------------------|----------------------------------|
----------------------------------|----------------------------------|
--5-5-5-5-5-5-5-5-5-5-5-5-5-5-5-5-|--3-3-3-3-3-3-3-3-3-3-3-3-3-3-3-3-|
--3-3-3-3-3-3-3-3-3-3-3-3-3-3-3-3-|--1-1-1-1-1-1-1-1-1-1-1-1-1-1-1-1-|
----------------------------------|----------------------------------|


  W                     S S S S S S S S S S S S S S S S  
-------------------||-----------------------------------|
-------------------||-----------------------------------|
-------------------||*----------------------------------|
--5----------------||*--5-5-5-5-5-5-5-5-5-5-5-5-5-5-5-5-|
--3----------------||---3-3-3-3-3-3-3-3-3-3-3-3-3-3-3-3-|
-------------------||-----------------------------------|


  S S S S S S S S S S S S S S S S    S S S S S S S S S S S S S S S S  
----------------------------------|----------------------------------|
----------------------------------|----------------------------------|
----------------------------------|----------------------------------|
----------------------------------|--8-8-8-8-8-8-8-8-----------------|
--5-5-5-5-5-5-5-5-5-5-5-5-5-5-5-5-|--6-6-6-6-6-6-6-6-8-8-8-8-8-8-8-8-|
--3-3-3-3-3-3-3-3-3-3-3-3-3-3-3-3-|------------------6-6-6-6-6-6-6-6-|


  Q    Q    H             Q    Q    H           W                 
----------------------||---------------------|-------------------|
----------------------||---------------------|-------------------|
---------------------*||---------------------|-------------------|
--5---------5--------*||--5---------5--------|--5----------------|
--3----5----3---------||--3----5----3--------|--3----------------|
-------3--------------||-------3-------------|-------------------|


  W                   H        H           Q    Q    H         
-------------------|--------------------|---------------------|
-------------------|--------------------|---------------------|
-------------------|--------------------|---------------------|
-------------------|--8-----------------|--5---------5--------|
--5----------------|--6--------8--------|--3----5----3--------|
--3----------------|-----------6--------|-------3-------------|


  E  S S S S S S S S S S S S S S    E  S S S S S S S S S S S S S S  
---------------------------------|---------------------------------|
---------------------------------|---------------------------------|
---------------------------------|---------------------------------|
--5--5-5-5-5-5-5-5-5-5-5-5-5-5-5-|---------------------------------|
--3--3-3-3-3-3-3-3-3-3-3-3-3-3-3-|--5--5-5-5-5-5-5-5-5-5-5-5-5-5-5-|
---------------------------------|--3--3-3-3-3-3-3-3-3-3-3-3-3-3-3-|


  E  S S S S S S E  S S S S S S    Q    Q    H          
--------------------------------|---------------------||
--------------------------------|---------------------||
--------------------------------|---------------------||
--8--8-8-8-8-8-8----------------|--5---------5--------||
--6--6-6-6-6-6-6-8--8-8-8-8-8-8-|--3----5----3--------||
-----------------6--6-6-6-6-6-6-|-------3-------------||




Duration Legend
---------------
W - whole
H - half
Q - quarter
E - 8th
S - 16th
T - 32nd
X - 64th
. - note dotted
|-n-|  - n-tuplets


Tablature Legend
----------------
L - tied note
x - dead note
g - grace note
(n) - ghost note
> - accentuded note
NH - natural harmonic
AH - artificial harmonic
TH - tapped harmonic
SH - semi harmonic
PH - pitch harmonic
h - hammer on
p - pull off
b - bend
br - bendRelease
pb - preBend
pbr - preBendRelease
brb - bendReleaseBend
\n/ - tremolo bar dip
\n - tremolo bar dive
-/n - tremolo bar Release up
/n\ - tremolo bar inverted dip
/n - tremolo bar return
-\n - tremolo bar Release down
S - shift slide
s - legato slide
/ -  slide into from below or out of upwards
\ -  slide into from above or out of downwards
~ - vibrato
W - wide vibrato
tr - trill
TP - tremolo picking
T - tapping
S - slap
P - pop
< - fade in
^ - brush up
v - brush down

            
            
Suggest correction
Creating personal tab
Creating personal tab
You can edit any tab online and save it as your Personal.

You can edit, replace or remove any tab part or add personal notes – all changes will be seen only by you.

Personal tabs can be accessed anytime from any device, even offline.
Learn more »
comments
print report bad tab
3 comments total.
0 reply
Ibanezen 93 Sep 04, 2007 06:09 AM

pretty good but somethings is wrong.

0 reply
Ibanezen 93 Sep 04, 2007 06:10 AM

are wrong*

0 reply
AppleRedStrat 10 Jan 23, 2014 02:07 PM

Intro measure 5 is definitely not played on those strings

guest
You may want to rate the tab now too:
select rating
Wanna post a correction for this tab? Suggest correction