Oops, an error
Loading. Please wait.

Isa tab

version 2
version 2

Whole song

Interactive

1,781 views 1 this week
no commentswrite comment
1 2 3 4 5
3 more votes to show rating
add to favorites
×
Save as Personal and add changes to this tab that will be seen only by you. Learn more ›
×
You can save this tab as Personal to edit and correct it or add notes. All changes will be seen only by you. Learn more »
launch autoscroll
font size
0
reset
how to read this tab
guitar tuner
edit
Autoscroll
slow
fast
+/-
esc
set tempo
stop
Author
Difficulty
Isa                                       
Enslaved

     E  E  E  E  E  E  E  E     E  E  E  E  E  E  E  E   
E||--------------------------|--------------------------|
B||--------------------------|--------------------------|
G||--------------------------|-----------------8--8-----|
D||--7--7--7--6--6--7--7--7--|--7--7--7--6--6--8--8--7--|
A||--0--0--0--8--8--0--0--7--|--7--7--7--6--6--6--6--0--|
E||-----------------------5--|--5--5--5--4--4-----------|


  E  E  E  E  E  E  E  E     E  E  E  E  E  E  E  E   
--------------------------|--------------------------|
--------------------------|--------------------------|
--------------------------|-----1--1--1--1--1--1--1--|
--7--7--7--6--6--6--6--6--|--6--3--3--3--3--3--3--3--|
--0--0--0--6--6--6--0--0--|--0--3--3--3--3--3--3--3--|
--------------------------|-----1--1--1--1--1--1--1--|


  E  E  E  E  E  E  E  E     E  E  E  E  E  E  E  E   
--------------------------|--------------------------|
--------------------------|--------------------------|
--------------------------|-----------------8--8-----|
--7--7--7--6--6--7--7--7--|--7--7--7--6--6--8--8--7--|
--0--0--0--8--8--0--0--7--|--7--7--7--6--6--6--6--0--|
-----------------------5--|--5--5--5--4--4-----------|


  E  E  E  E  E  E  E  E     E  E  E  E  E  E  E  E   
--------------------------|--------------------------|
--------------------------|--------------------------|
--------------------------|-----1--1--1--1--1--1--1--|
--7--7--7--6--6--6--6--6--|--6--3--3--3--3--3--3--3--|
--0--0--0--6--6--6--0--0--|--0--3--3--3--3--3--3--3--|
--------------------------|-----1--1--1--1--1--1--1--|


  E  E  E  E  E  E  E  E     E  E  E  E  E  E  E  E   
--------------------------|--------------------------|
--------------------------|--------------------------|
--------------------------|-----------------8--8-----|
--7--7--7--6--6--7--7--7--|--7--7--7--6--6--8--8--7--|
--0--0--0--8--8--0--0--7--|--7--7--7--6--6--6--6--0--|
-----------------------5--|--5--5--5--4--4-----------|


  E  E  E  E  E  E  E  E     E  E  E  E  E  E  E  E   
--------------------------|--------------------------|
--------------------------|--------------------------|
--------------------------|-----1--1--1--1--1--1--1--|
--7--7--7--6--6--6--6--6--|--6--3--3--3--3--3--3--3--|
--0--0--0--6--6--6--0--0--|--0--3--3--3--3--3--3--3--|
--------------------------|-----1--1--1--1--1--1--1--|


  E  E  E  E  E  E  E  E     E  E  E  E  E  E  E  E   
--------------------------|--------------------------|
--------------------------|--------------------------|
--------------------------|-----------------8--8-----|
--7--7--7--6--6--7--7--7--|--7--7--7--6--6--8--8--7--|
--0--0--0--8--8--0--0--7--|--7--7--7--6--6--6--6--0--|
-----------------------5--|--5--5--5--4--4-----------|


  E  E  E  E  E  E  E  E     E  E  E  E  E  E  E  E   
--------------------------|--------------------------|
--------------------------|--------------------------|
--------------------------|-----1--1--1--1--1--1--1--|
--7--7--7--6--6--6--6--6--|--6--3--3--3--3--3--3--3--|
--0--0--0--6--6--6--0--0--|--0--3--3--3--3--3--3--3--|
--------------------------|-----1--1--1--1--1--1--1--|


  E  E  E  E  E  E  E  E     E  E  E  E  E  E  E  E   
--------------------------|--------------------------|
--------------------------|--------------------------|
--------------------------|-----------------8--8-----|
--7--7--7--6--6--7--7--7--|--7--7--7--6--6--8--8--7--|
--0--0--0--8--8--0--0--7--|--7--7--7--6--6--6--6--0--|
-----------------------5--|--5--5--5--4--4-----------|


  E  E  E  E  E  E  E  E     E    E   E   E   E   E   E   E   
--------------------------|----------------------------------|
--------------------------|----------------------------------|
--------------------------|----------------------------------|
--7--7--7--6--6--6--6--6--|-----/11--11--11--11--11--11--11--|
--0--0--0--6--6--6--0--0--|--0---12--12--12--12--12--12--12--|
--------------------------|----------------------------------|


   E   E  E   E   E  E   E  E      E   E  E   E   E  E   E  E   
---0---0------0---0------0-----|--12--12-----12--12-----12-----|
--14--14-----14--14-----14-----|--14--14-----14--14-----14-----|
--13--13-----13--13-----13-----|--13--13-----13--13-----13-----|
-------------------------------|-------------------------------|
-------------------------------|-------------------------------|
-------------------------------|-------------------------------|


   E   E  E   E   E  E   E  E      E   E  E   E   E  E   
--10--10-----10--10-----10-----|--12--12-----12--12-----|
--13--13-----13--13-----13-----|--11--11-----11--11-----|
--10--10-----10--10-----10-----|---9---9------9---9-----|
-------------------------------|------------------------|
-------------------------------|------------------------|
-------------------------------|------------------------|


   E   E  E   E   E  E   E  E      E   E  E   E   E  E   E  E   
---0---0------0---0------0-----|--12--12-----12--12-----12-----|
--14--14-----14--14-----14-----|--14--14-----14--14-----14-----|
--13--13-----13--13-----13-----|--13--13-----13--13-----13-----|
-------------------------------|-------------------------------|
-------------------------------|-------------------------------|
-------------------------------|-------------------------------|


   E   E  E   E   E  E   E  E      E   E  E   E   E  E   E  E   
--10--10-----10--10-----10-----|--12--12-----12--12-----12-----|
--13--13-----13--13-----13-----|--11--11-----11--11-----11-----|
--10--10-----10--10-----10-----|---9---9------9---9------9-----|
-------------------------------|-------------------------------|
-------------------------------|-------------------------------|
-------------------------------|-------------------------------|


   E   E  E   E   E  E   E  E      E   E  E   E   E  E   E  E   
---0---0------0---0------0-----|--12--12-----12--12-----12-----|
--14--14-----14--14-----14-----|--14--14-----14--14-----14-----|
--13--13-----13--13-----13-----|--13--13-----13--13-----13-----|
-------------------------------|-------------------------------|
-------------------------------|-------------------------------|
-------------------------------|-------------------------------|


   E   E  E   E   E  E   E  E      E   E  E   E   E  E   
--10--10-----10--10-----10-----|--12--12-----12--12-----|
--13--13-----13--13-----13-----|--11--11-----11--11-----|
--10--10-----10--10-----10-----|---9---9------9---9-----|
-------------------------------|------------------------|
-------------------------------|------------------------|
-------------------------------|------------------------|


   E   E  E   E   E  E   E  E      E   E  E   E   E  E   E  E   
---0---0------0---0------0-----|--12--12-----12--12-----12-----|
--14--14-----14--14-----14-----|--14--14-----14--14-----14-----|
--13--13-----13--13-----13-----|--13--13-----13--13-----13-----|
-------------------------------|-------------------------------|
-------------------------------|-------------------------------|
-------------------------------|-------------------------------|


   E   E  E   E   E  E   E  E      E   E  E   E   E  E   E  E   
--10--10-----10--10-----10-----|--12--12-----12--12-----12-----|
--13--13-----13--13-----13-----|--11--11-----11--11-----11-----|
--10--10-----10--10-----10-----|---9---9------9---9------9-----|
-------------------------------|-------------------------------|
-------------------------------|-------------------------------|
-------------------------------|-------------------------------|


  E  E  E  E  E  E  E  E     E  E  E  E  E  E  E  E   
--------------------------|--------------------------|
--------------------------|--------------------------|
--------------------------|-----------------8--8-----|
--7--7--7--6--6--7--7--7--|--7--7--7--6--6--8--8--7--|
--0--0--0--8--8--0--0--7--|--7--7--7--6--6--6--6--0--|
-----------------------5--|--5--5--5--4--4-----------|


  E  E  E  E  E  E  E  E     E  E  E  E  E  E  E  E   
--------------------------|--------------------------|
--------------------------|--------------------------|
--------------------------|-----1--1--1--1--1--1--1--|
--7--7--7--6--6--6--6--6--|--6--3--3--3--3--3--3--3--|
--0--0--0--6--6--6--0--0--|--0--3--3--3--3--3--3--3--|
--------------------------|-----1--1--1--1--1--1--1--|


  E  E  E  E  E  E  E  E     E  E  E  E  E  E  E  E   
--------------------------|--------------------------|
--------------------------|--------------------------|
--------------------------|-----------------8--8-----|
--7--7--7--6--6--7--7--7--|--7--7--7--6--6--8--8--7--|
--0--0--0--8--8--0--0--7--|--7--7--7--6--6--6--6--0--|
-----------------------5--|--5--5--5--4--4-----------|


  E  E  E  E  E  E  E  E     E  E  E  E  E  E  E  E   
--------------------------|--------------------------|
--------------------------|--------------------------|
--------------------------|-----1--1--1--1--1--1--1--|
--7--7--7--6--6--6--6--6--|--6--3--3--3--3--3--3--3--|
--0--0--0--6--6--6--0--0--|--0--3--3--3--3--3--3--3--|
--------------------------|-----1--1--1--1--1--1--1--|


  E  E  E  E  E  E  E  E     E  E  E  E  E  E  E  E   
--------------------------|--------------------------|
--------------------------|--------------------------|
--------------------------|-----------------8--8-----|
--7--7--7--6--6--7--7--7--|--7--7--7--6--6--8--8--7--|
--0--0--0--8--8--0--0--7--|--7--7--7--6--6--6--6--0--|
-----------------------5--|--5--5--5--4--4-----------|


  E  E  E  E  E  E  E  E     E  E  E  E  E  E  E  E   
--------------------------|--------------------------|
--------------------------|--------------------------|
--------------------------|-----1--1--1--1--1--1--1--|
--7--7--7--6--6--6--6--6--|--6--3--3--3--3--3--3--3--|
--0--0--0--6--6--6--0--0--|--0--3--3--3--3--3--3--3--|
--------------------------|-----1--1--1--1--1--1--1--|


  E  E  E  E  E  E  E  E     E  E  E  E  E  E  E  E   
--------------------------|--------------------------|
--------------------------|--------------------------|
--------------------------|-----------------8--8-----|
--7--7--7--6--6--7--7--7--|--7--7--7--6--6--8--8--7--|
--0--0--0--8--8--0--0--7--|--7--7--7--6--6--6--6--0--|
-----------------------5--|--5--5--5--4--4-----------|


  E  E  E  E  E  E  E  E     E    E   E   E   E   E   E   E   
--------------------------|----------------------------------|
--------------------------|----------------------------------|
--------------------------|----------------------------------|
--7--7--7--6--6--6--6--6--|-----/11--11--11--11--11--11--11--|
--0--0--0--6--6--6--0--0--|--0---12--12--12--12--12--12--12--|
--------------------------|----------------------------------|


  E  E  E  E  E  E  E  E     E  E  E  E  E  E  E  E   
--------------------------|--------------------------|
--------------------------|--------------------------|
--------------------------|-----------------8--8-----|
--7--7--7--6--6--7--7--7--|--7--7--7--6--6--8--8--7--|
--0--0--0--8--8--0--0--7--|--7--7--7--6--6--6--6--0--|
-----------------------5--|--5--5--5--4--4-----------|


  E  E  E  E  E  E  E  E     E  E  E  E  E  E  E  E   
--------------------------|--------------------------|
--------------------------|--------------------------|
--------------------------|-----1--1--1--1--1--1--1--|
--7--7--7--6--6--6--6--6--|--6--3--3--3--3--3--3--3--|
--0--0--0--6--6--6--0--0--|--0--3--3--3--3--3--3--3--|
--------------------------|-----1--1--1--1--1--1--1--|


  E  E  E  E  E  E  E  E     E  E  E  E  E  E  E  E   
--------------------------|--------------------------|
--------------------------|--------------------------|
--------------------------|-----------------8--8-----|
--7--7--7--6--6--7--7--7--|--7--7--7--6--6--8--8--7--|
--0--0--0--8--8--0--0--7--|--7--7--7--6--6--6--6--0--|
-----------------------5--|--5--5--5--4--4-----------|


  E  E  E  E  E  E  E  E     E  E  E  E  E  E  E  E   
--------------------------|--------------------------|
--------------------------|--------------------------|
--------------------------|-----1--1--1--1--1--1--1--|
--7--7--7--6--6--6--6--6--|--6--3--3--3--3--3--3--3--|
--0--0--0--6--6--6--0--0--|--0--3--3--3--3--3--3--3--|
--------------------------|-----1--1--1--1--1--1--1--|


  E  E  E  E  E  E  E  E     E  E  E  E  E  E  E  E   
--------------------------|--------------------------|
--------------------------|--------------------------|
--------------------------|-----------------8--8-----|
--7--7--7--6--6--7--7--7--|--7--7--7--6--6--8--8--7--|
--0--0--0--8--8--0--0--7--|--7--7--7--6--6--6--6--0--|
-----------------------5--|--5--5--5--4--4-----------|


  E  E  E  E  E  E  E  E     E  E  E  E  E  E  E  E   
--------------------------|--------------------------|
--------------------------|--------------------------|
--------------------------|-----1--1--1--1--1--1--1--|
--7--7--7--6--6--6--6--6--|--6--3--3--3--3--3--3--3--|
--0--0--0--6--6--6--0--0--|--0--3--3--3--3--3--3--3--|
--------------------------|-----1--1--1--1--1--1--1--|


  E  E  E  E  E  E  E  E     E  E  E  E  E  E  E  E   
--------------------------|--------------------------|
--------------------------|--------------------------|
--------------------------|-----------------8--8-----|
--7--7--7--6--6--7--7--7--|--7--7--7--6--6--8--8--7--|
--0--0--0--8--8--0--0--7--|--7--7--7--6--6--6--6--0--|
-----------------------5--|--5--5--5--4--4-----------|


  E  E  E  E  E  E  E  E     E    E   E   E   E   E   E   E   
--------------------------|----------------------------------|
--------------------------|----------------------------------|
--------------------------|----------------------------------|
--7--7--7--6--6--6--6--6--|-----/11--11--11--11--11--11--11--|
--0--0--0--6--6--6--0--0--|--0---12--12--12--12--12--12--12--|
--------------------------|----------------------------------|


  W.                                  
-------------------|-----|-----|-----|
-------------------|-----|-----|-----|
-------------------|-----|-----|-----|
--5----------------|-----|-----|-----|
--3----------------|-----|-----|-----|
--3----------------|-----|-----|-----|


   S  S  S  S  S  S  S  S  S  S  S  S  S  S  S  S  S  S  S  S  S  S  S  S  
--------------------------------------------------------------------------|
--13-13-13-13-13-13-13-13-13-13-13-13-17-17-17-17-17-17-17-17-17-17-17-17-|
---0--0--0--0--0--0--0--0--0--0--0--0--0--0--0--0--0--0--0--0--0--0--0--0-|
--10-10-10-10-10-10-10-10-10-10-10-10-14-14-14-14-14-14-14-14-14-14-14-14-|
--------------------------------------------------------------------------|
--------------------------------------------------------------------------|


   S  S  S  S  S  S  S  S  S  S  S  S S S S S S S S S S S S S  
--------------------------------------------------------------|
--12-12-12-12-12-12-12-12-12-12-12-12-8-8-8-8-8-8-8-8-8-8-8-8-|
---0--0--0--0--0--0--0--0--0--0--0--0-0-0-0-0-0-0-0-0-0-0-0-0-|
---9--9--9--9--9--9--9--9--9--9--9--9-5-5-5-5-5-5-5-5-5-5-5-5-|
--------------------------------------------------------------|
--------------------------------------------------------------|


  S S S S S S S S S S S S  S  S  S  S  S  S  S  S  S  S  S  S  
--------------------------------------------------------------|
--9-9-9-9-9-9-9-9-9-9-9-9-13-13-13-13-13-13-13-13-13-13-13-13-|
--0-0-0-0-0-0-0-0-0-0-0-0--0--0--0--0--0--0--0--0--0--0--0--0-|
--6-6-6-6-6-6-6-6-6-6-6-6-10-10-10-10-10-10-10-10-10-10-10-10-|
--------------------------------------------------------------|
--------------------------------------------------------------|


  S S S S S S S S S S S S S S S S S S S S S S S S  
--------------------------------------------------|
--8-8-8-8-8-8-8-8-8-8-8-8-7-7-7-7-7-7-7-7-7-7-7-7-|
--0-0-0-0-0-0-0-0-0-0-0-0-0-0-0-0-0-0-0-0-0-0-0-0-|
--5-5-5-5-5-5-5-5-5-5-5-5-4-4-4-4-4-4-4-4-4-4-4-4-|
--------------------------------------------------|
--------------------------------------------------|


   S  S  S  S  S  S  S  S  S  S  S  S  S  S  S  S  S  S  S  S  S  S  S  S  
--------------------------------------------------------------------------|
--13-13-13-13-13-13-13-13-13-13-13-13-17-17-17-17-17-17-17-17-17-17-17-17-|
---0--0--0--0--0--0--0--0--0--0--0--0--0--0--0--0--0--0--0--0--0--0--0--0-|
--------------------------------------------------------------------------|
--------------------------------------------------------------------------|
--------------------------------------------------------------------------|


   S  S  S  S  S  S  S  S  S  S  S  S S S S S S S S S S S S S  
--------------------------------------------------------------|
--12-12-12-12-12-12-12-12-12-12-12-12-8-8-8-8-8-8-8-8-8-8-8-8-|
---0--0--0--0--0--0--0--0--0--0--0--0-0-0-0-0-0-0-0-0-0-0-0-0-|
--------------------------------------------------------------|
--------------------------------------------------------------|
--------------------------------------------------------------|


  S S S S S S S S S S S S  S  S  S  S  S  S  S  S  S  S  S  S  
--------------------------------------------------------------|
--9-9-9-9-9-9-9-9-9-9-9-9-13-13-13-13-13-13-13-13-13-13-13-13-|
--0-0-0-0-0-0-0-0-0-0-0-0--0--0--0--0--0--0--0--0--0--0--0--0-|
--------------------------------------------------------------|
--------------------------------------------------------------|
--------------------------------------------------------------|


  S S S S S S S S S S S S S S S S S S S S S S S S  
--------------------------------------------------|
--8-8-8-8-8-8-8-8-8-8-8-8-7-7-7-7-7-7-7-7-7-7-7-7-|
--0-0-0-0-0-0-0-0-0-0-0-0-0-0-0-0-0-0-0-0-0-0-0-0-|
--------------------------------------------------|
--------------------------------------------------|
--------------------------------------------------|


   S  S  S  S  S  S  S  S  S  S  S  S  S  S  S  S  S  S  S  S  S  S  S  S  
--------------------------------------------------------------------------|
--13-13-13-13-13-13-13-13-13-13-13-13-17-17-17-17-17-17-17-17-17-17-17-17-|
---0--0--0--0--0--0--0--0--0--0--0--0--0--0--0--0--0--0--0--0--0--0--0--0-|
--10-10-10-10-10-10-10-10-10-10-10-10-14-14-14-14-14-14-14-14-14-14-14-14-|
--------------------------------------------------------------------------|
--------------------------------------------------------------------------|


   S  S  S  S  S  S  S  S  S  S  S  S S S S S S S S S S S S S  
--------------------------------------------------------------|
--12-12-12-12-12-12-12-12-12-12-12-12-8-8-8-8-8-8-8-8-8-8-8-8-|
---0--0--0--0--0--0--0--0--0--0--0--0-0-0-0-0-0-0-0-0-0-0-0-0-|
---9--9--9--9--9--9--9--9--9--9--9--9-5-5-5-5-5-5-5-5-5-5-5-5-|
--------------------------------------------------------------|
--------------------------------------------------------------|


  S S S S S S S S S S S S  S  S  S  S  S  S  S  S  S  S  S  S  
--------------------------------------------------------------|
--9-9-9-9-9-9-9-9-9-9-9-9-13-13-13-13-13-13-13-13-13-13-13-13-|
--0-0-0-0-0-0-0-0-0-0-0-0--0--0--0--0--0--0--0--0--0--0--0--0-|
--6-6-6-6-6-6-6-6-6-6-6-6-10-10-10-10-10-10-10-10-10-10-10-10-|
--------------------------------------------------------------|
--------------------------------------------------------------|


  S S S S S S S S S S S S S S S S S S S S S S S S  
--------------------------------------------------|
--8-8-8-8-8-8-8-8-8-8-8-8-7-7-7-7-7-7-7-7-7-7-7-7-|
--0-0-0-0-0-0-0-0-0-0-0-0-0-0-0-0-0-0-0-0-0-0-0-0-|
--5-5-5-5-5-5-5-5-5-5-5-5-4-4-4-4-4-4-4-4-4-4-4-4-|
--------------------------------------------------|
--------------------------------------------------|


   E   E  E   E   E  E   E  E      E   E  E   E   E  E   E  E   
---0---0------0---0------0-----|--12--12-----12--12-----12-----|
--14--14-----14--14-----14-----|--14--14-----14--14-----14-----|
--13--13-----13--13-----13-----|--13--13-----13--13-----13-----|
-------------------------------|-------------------------------|
-------------------------------|-------------------------------|
-------------------------------|-------------------------------|


   E   E  E   E   E  E   E  E      E   E  E   E   E  E   
--10--10-----10--10-----10-----|--12--12-----12--12-----|
--13--13-----13--13-----13-----|--11--11-----11--11-----|
--10--10-----10--10-----10-----|---9---9------9---9-----|
-------------------------------|------------------------|
-------------------------------|------------------------|
-------------------------------|------------------------|


   E   E  E   E   E  E   E  E      E   E  E   E   E  E   E  E   
---0---0------0---0------0-----|--12--12-----12--12-----12-----|
--14--14-----14--14-----14-----|--14--14-----14--14-----14-----|
--13--13-----13--13-----13-----|--13--13-----13--13-----13-----|
-------------------------------|-------------------------------|
-------------------------------|-------------------------------|
-------------------------------|-------------------------------|


   E   E  E   E   E  E   E  E      E   E  E   E   E  E   E  E   
--10--10-----10--10-----10-----|--12--12-----12--12-----12-----|
--13--13-----13--13-----13-----|--11--11-----11--11-----11-----|
--10--10-----10--10-----10-----|---9---9------9---9------9-----|
-------------------------------|-------------------------------|
-------------------------------|-------------------------------|
-------------------------------|-------------------------------|


   E   E  E   E   E  E   E  E      E   E  E   E   E  E   E  E   
---0---0------0---0------0-----|--12--12-----12--12-----12-----|
--14--14-----14--14-----14-----|--14--14-----14--14-----14-----|
--13--13-----13--13-----13-----|--13--13-----13--13-----13-----|
-------------------------------|-------------------------------|
-------------------------------|-------------------------------|
-------------------------------|-------------------------------|


   E   E  E   E   E  E   E  E      E   E  E   E   E  E   
--10--10-----10--10-----10-----|--12--12-----12--12-----|
--13--13-----13--13-----13-----|--11--11-----11--11-----|
--10--10-----10--10-----10-----|---9---9------9---9-----|
-------------------------------|------------------------|
-------------------------------|------------------------|
-------------------------------|------------------------|


   E   E  E   E   E  E   E  E      E   E  E   E   E  E   E  E   
---0---0------0---0------0-----|--12--12-----12--12-----12-----|
--14--14-----14--14-----14-----|--14--14-----14--14-----14-----|
--13--13-----13--13-----13-----|--13--13-----13--13-----13-----|
-------------------------------|-------------------------------|
-------------------------------|-------------------------------|
-------------------------------|-------------------------------|


   E   E  E   E   E  E   E  E      E   E  E   E   E  E   E  E   
--10--10-----10--10-----10-----|--12--12-----12--12-----12-----|
--13--13-----13--13-----13-----|--11--11-----11--11-----11-----|
--10--10-----10--10-----10-----|---9---9------9---9------9-----|
-------------------------------|-------------------------------|
-------------------------------|-------------------------------|
-------------------------------|-------------------------------|


   E   E  E   E   E  E   E  E      E   E  E   E   E  E   E  E   
---0---0------0---0------0-----|--12--12-----12--12-----12-----|
--14--14-----14--14-----14-----|--14--14-----14--14-----14-----|
--13--13-----13--13-----13-----|--13--13-----13--13-----13-----|
-------------------------------|-------------------------------|
-------------------------------|-------------------------------|
-------------------------------|-------------------------------|


   E   E  E   E   E  E   E  E      E   E  E   E   E  E   
--10--10-----10--10-----10-----|--12--12-----12--12-----|
--13--13-----13--13-----13-----|--11--11-----11--11-----|
--10--10-----10--10-----10-----|---9---9------9---9-----|
-------------------------------|------------------------|
-------------------------------|------------------------|
-------------------------------|------------------------|


   E   E  E   E   E  E   E  E      E   E  E   E   E  E   E  E   
---0---0------0---0------0-----|--12--12-----12--12-----12-----|
--14--14-----14--14-----14-----|--14--14-----14--14-----14-----|
--13--13-----13--13-----13-----|--13--13-----13--13-----13-----|
-------------------------------|-------------------------------|
-------------------------------|-------------------------------|
-------------------------------|-------------------------------|


   E   E  E   E   E  E   E  E      E   E  E   E   E  E   E  E   
--10--10-----10--10-----10-----|--12--12-----12--12-----12-----|
--13--13-----13--13-----13-----|--11--11-----11--11-----11-----|
--10--10-----10--10-----10-----|---9---9------9---9------9-----|
-------------------------------|-------------------------------|
-------------------------------|-------------------------------|
-------------------------------|-------------------------------|


   E   E  E   E   E  E   E  E      E   E  E   E   E  E   E  E   
---0---0------0---0------0-----|--12--12-----12--12-----12-----|
--14--14-----14--14-----14-----|--14--14-----14--14-----14-----|
--13--13-----13--13-----13-----|--13--13-----13--13-----13-----|
-------------------------------|-------------------------------|
-------------------------------|-------------------------------|
-------------------------------|-------------------------------|


   E   E  E   E   E  E   E  E      E   E  E   E   E  E   
--10--10-----10--10-----10-----|--12--12-----12--12-----|
--13--13-----13--13-----13-----|--11--11-----11--11-----|
--10--10-----10--10-----10-----|---9---9------9---9-----|
-------------------------------|------------------------|
-------------------------------|------------------------|
-------------------------------|------------------------|


   E   E  E   E   E  E   E  E      E   E  E   E   E  E   E  E   
---0---0------0---0------0-----|--12--12-----12--12-----12-----|
--14--14-----14--14-----14-----|--14--14-----14--14-----14-----|
--13--13-----13--13-----13-----|--13--13-----13--13-----13-----|
-------------------------------|-------------------------------|
-------------------------------|-------------------------------|
-------------------------------|-------------------------------|


   E   E  E   E   E  E   E  E      E   E  E   E   E  E   E  E    
--10--10-----10--10-----10-----|--12--12-----12--12-----12-----||
--13--13-----13--13-----13-----|--11--11-----11--11-----11-----||
--10--10-----10--10-----10-----|---9---9------9---9------9-----||
-------------------------------|-------------------------------||
-------------------------------|-------------------------------||
-------------------------------|-------------------------------||




Duration Legend
---------------
W - whole
H - half
Q - quarter
E - 8th
S - 16th
T - 32nd
X - 64th
. - note dotted
|-n-|  - n-tuplets


Tablature Legend
----------------
L - tied note
x - dead note
g - grace note
(n) - ghost note
> - accentuded note
NH - natural harmonic
AH - artificial harmonic
TH - tapped harmonic
SH - semi harmonic
PH - pitch harmonic
h - hammer on
p - pull off
b - bend
br - bendRelease
pb - preBend
pbr - preBendRelease
brb - bendReleaseBend
\n/ - tremolo bar dip
\n - tremolo bar dive
-/n - tremolo bar Release up
/n\ - tremolo bar inverted dip
/n - tremolo bar return
-\n - tremolo bar Release down
S - shift slide
s - legato slide
/ -  slide into from below or out of upwards
\ -  slide into from above or out of downwards
~ - vibrato
W - wide vibrato
tr - trill
TP - tremolo picking
T - tapping
S - slap
P - pop
< - fade in
^ - brush up
v - brush down
Suggest correction
Creating personal tab
Creating personal tab
You can edit any tab online and save it as your Personal.

You can edit, replace or remove any tab part or add personal notes – all changes will be seen only by you.

Personal tabs can be accessed anytime from any device, even offline.
Learn more »
Give kudos to tab author, rate the tab!
1 2 3 4 5
comments
print report bad tab
guest
You may want to rate the tab now too:
select rating
Wanna post a correction for this tab? Suggest correction