Oops, an error
Loading. Please wait.

Acid Nation Bass Tab

version 1
version 1

Whole song

Interactive

2,920 views 1 this week
6 commentsread comments
1 2 3 4 5
excellent!
x 3
add to favorites
launch autoscroll
font size
0
reset
guitar tuner
Tab Pro tools
  • play this tab
  • loop segment
  • change instrument
  • show fretboard
  • metronome
×
Best way to learn
"Acid Nation"
Autoscroll
slow
fast
+/-
esc
set tempo
stop
Contributor
Difficulty
Song: Acid Nation
Artist: Enter Shikari
Tuning: Standard

The bassline for this song is really unclear, so I had a go and came up with this. If 
have any suggestions please email me:
joel-92@hotmail.co.uk, because this is one of my first tabs so its probably wrong!

Verse:

The bass line is very faint but if you play it very softly it sounds like it

|------------------------------------|
|------------------------------------|
|------------------------------------|      x4
|-99999999-88888888-9999999999999999-|


Chorus Part 1

"This is a celebration of spirit and the mind..."

|--------------------------------------|
|--------------------------------------|
|----------77777777-4-4-4-4-99999999---|     x2
|-99999999-----------------------------|

Chorus Part 2, basicly the same as part1:

"This is an acid nation..."

|--------------------------------------|
|--------------------------------------|
|----------77777777-44444444-99999999--|     x2
|-99999999-----------------------------|


Breakdown, the first bit is guitar, and then the bass kicks in:

"Feel the rays..."

------------------|
------------------|
------------------| Just before the bass comes in, you hear this
--9-9\------------|


------------------|
------------------|
------------------|    x4
-0-2-4-0-5-4-2-4--|

Repeat Chorus:

Chorus Part 1

"Next time you open your eyes..."

|--------------------------------------|
|--------------------------------------|
|----------77777777-4-4-4-4-99999999---|     x2
|-99999999-----------------------------|

Chorus Part 2, basicly the same as part1:

"This is an acid nation..."

|--------------------------------------|
|--------------------------------------|
|----------77777777-44444444-99999999--|     x2
|-99999999-----------------------------|

Breakdown again:

"Feel the rays..."

------------------|
------------------|
------------------| Just before the bass comes in, you hear this
--9-9\------------|

------------------|
------------------|
------------------|    x4
-0-2-4-0-5-4-2-4--|


"And anyway who cares..."

------------------|
------------------|
------------------|
0-0-2-4-0-4-4-2-4-|

Wierd timing but sounds good when u get it right. If
you can't get it right play the breakdown again.


"The sun is out..."

---------------------------------|
---------------------------------|
---------------------------------|  x4
0-0--0-0--0-0-0---0-0--0-0--0----|

"This is everthing I ever wanted..."

------------------------------------------------|
------------------------------------------------|
------------------------------------------------|
-0-0--0-0--/11\--0-0--0-0--/14\--0-0--0-0--/10\-|

End On:

--------|
--------|
--------|
--9\----|
comments
We did not receive enough feedback on this tab! Please rate:
print report bad tab
1 2 3 4 5
6 comments total. Showing first comments.
-1 reply
skillsthatkills wrote on January 23 2008, 01:12 pm

Song: Acid Nation
Artist: Enter Shikari
Tuning: Db Ab Db Gb


The bassline for this song is really unclear, so I had a go and came up with this. If
have any suggestions please email me:
joel-92@hotmail.co.uk, because this is one of my first tabs so its probably wrong!

Verse:

The bass line is very faint but if you play it very softly it sounds like it

|------------------------------------|
|------------------------------------|
|------------------------------------| x4
|-88888888-77777777-8888888888888888-|


Chorus Part 1

"This is a celebration of spirit and the mind..."

|----------------------------------------------|
|----------------------------------------------|
|----------88888888-5-5-5-5-1010101010101010---| x2
|-99999999-------------------------------------|

Chorus Part 2, basicly the same as part1:

"This is an acid nation..."

|-----------------------------------------------|
|-----------------------------------------------|
|----------88888888-55555555-1010101010101010---| x2
|-99999999--------------------------------------|


Breakdown, the first bit is guitar, and then the bass kicks in:

"Feel the rays..."

------------------|
------------------|
------------------| Just before the bass comes in, you hear this
--9-9\------------|


------------------|
------------------|
------------------| x4
-0-2-4-0-5-4-2-4--|

Repeat Chorus:

Chorus Part 1

"Next time you open your eyes..."

|----------------------------------------------|
|----------------------------------------------|
|----------88888888-5-5-5-5-1010101010101010---| x2
|-99999999-------------------------------------|

Chorus Part 2, basicly the same as part1:

"This is an acid nation..."

|-----------------------------------------------|
|-----------------------------------------------|
|----------88888888-55555555-1010101010101010---| x2
|-99999999--------------------------------------|

Breakdown again:

"Feel the rays..."

------------------|
------------------|
------------------| Just before the bass comes in, you hear this
--9-9\------------|

------------------|
------------------|
------------------| x4
-0-2-4-0-5-4-2-4--|


"And anyway who cares..."

------------------|
------------------|
------------------|
0-0-2-4-0-4-4-2-4-|

Wierd timing but sounds good when u get it right. If
you can't get it right play the breakdown again.


"The sun is out..."

---------------------------------|
---------------------------------|
---------------------------------| x4
0-0--0-0--0-0-0---0-0--0-0--0----|

"This is everthing I ever wanted..."

------------------------------------------------|
------------------------------------------------|
------------------------------------------------|
-0-0--0-0--/12\--0-0--0-0--/14\--0-0--0-0--/10\-|

End On:

--------|
--------|
--------|
--10\----|


0 reply
skillsthatkills wrote on January 23 2008, 01:16 pm

thanks to jake lawson for helpin with the tuning and tab :]

0 reply
skillsthatkills wrote on January 23 2008, 01:37 pm

** need help with the chorus please? Its so hard to hear the bassline :[

I want to post or [tab]
guest
You may want to rate the tab now too:
select rating
Please do not post tabs as comments. Select "correction" instead!