Oops, an error
Loading. Please wait.

Adieu Bass Tab

version 1
version 1

Whole song

Interactive

4,390 views 6 this week
2 commentsread comments
1 2 3 4 5
2 more votes to show rating
add to favorites
launch autoscroll
font size
0
reset
guitar tuner
Autoscroll
slow
fast
+/-
esc
set tempo
stop
Help us to improve Ultimate-Guitar.com Take our survey!
×
Author
Difficulty
Tuning
intermediate
D A D G B E
I stick to what i said on my kickin back ta, its probli not perfect but no1 else has 
one so i thought id give it a go :]

any suggestions email me joel-92@hotmail.co.uk taa

and i know e.s play in drop C# and this is drop d but it sounds alrite to me


after acoustic intro

G|---------------------------------------------------------|
D|---------------------------------------------------------|
A|-----------8--6--4-----------464-4-----------------------|
D|-0~----------------5----------------5--------------------|


G|-----------------------------------------------------------------------|
D|-----------------------------------------------------------------------|  x2
A|------------------------8-6-4--------------4644------------------------|
D|-0-000--0-000-0-000--0--------5--5-555--5-------0-000-0-000-00000000---|

G|------------------------------------------------------|
D|------------------------------------------------------|
A|-8~-6~-4~----8~-6~-4h6p4/-8~-6~-4~---/8~-8~-4~--------|   x2
D|----------5~-----------------------5~-----------------|


G|----------------------|
D|----------------------|
A|---6--4--6--4---------|   x2
D|----------------------|

G|-------------------------------------------------------|
D|-------------------------------------------------------|
A|---------9--7---------------464------------------------|
D|---------------9--5--------------5---------------------|


G|----------------------------------------------------------------------|
D|----------------------------------------------------------------------|  x2
A|------------------------9-7---------------4744------------------------|
D|-0-000--0-000-0-000--0------9-5--5-555--5------0-000-0-000-00000000---|

G|------------------------------------------------------|
D|------------------------------------------------------|
A|-8~-6~-4~----8~-6~-4h6p4/-8~-6~-4~---/8~-8~-4~--------|   x2
D|----------5~-----------------------5~-----------------|

G|----------------------|
D|----------------------|
A|---6--4---------------|   x2
D|----------------------|

G|----------------------|
D|----------------------|
A|--4---------4---------|   x2
D|----5---------5-------|

Acoustic Bridge

G|--------------------------|
D|--------------------------|
A|------------5--5--5--5----|   x2
D|-0--0--0--0---------------|


G|---------------------|
D|---------------------|
A|--5~-0~--------------|   x2
D|---------4~--5~------|


G|---------------------------------------|
D|---------------------------------------|
A|--44444444----------44444444-66666666--|
D------------55555555--------------------|


repeat til end
Suggest correction
Give kudos to tab author, rate the tab!
1 2 3 4 5
comments
print report bad tab
2 comments total.
0 reply
skillsthatkills 166 Sep 06, 2008 08:44 AM

sorry the 2nd verse shud b same as 1st, not 9-7 but 8-6

think thats all :]

0 reply
LanOsb133 10 Nov 05, 2009 07:56 PM

AWEOME!!!!! I play it insted of
G|------------------------------------------------------|
D|------------------------------------------------------|
A|-8~-6~-4~----8~-6~-4h6p4/-8~-6~-4~---/8~-8~-4~--------|
D|----------5~-----------------------5~-----------------|

I play

G|------------------------------------------------------|
D|-----------------------4------------------------------|
A|-8~-6~-4~----8~-6~-4h6p-/-8~-6~-4~---/8~-8~-4~--------| x2
D|----------5~-----------------------5~-----------------|

I personally like my way better but the correct way is how u have it but when i play it my way it gives it alot more "KIck" and it sounds like it fits... THANKS FOR POSTING!!!!!!!!

guest
You may want to rate the tab now too:
select rating
Wanna post a correction for this tab? Suggest correction