Oops, an error
Loading. Please wait.

Adieu Tab

version 1
version 1

Whole song

Interactive

66,580 views 51 this week
20 commentsread comments
1 2 3 4 5
x 26
add to favorites
launch autoscroll
font size
0
reset
how to read this tab
guitar tuner
×
Best way to learn
"Adieu"
Autoscroll
slow
fast
+/-
esc
set tempo
stop
Author
Difficulty
Tuning
novice
C# G# C# F# A# D#
Enter Shikari - Adieu
Tabbed by: Nick Whitham
Email: whitham_is@hotmail.com

[Tuning]
Db Ab Db Gb Bb Eb

[KEY]
| /  slide up
| \  slide down
| h  hammer-on
| x  Mute note

[Intro]
(two ways: recorded version or live version - see below)
D#|-------------------------------------------------------------------------|
A#|-------------------------------------------------------------------------|
F#|-7---7--7---7--7/9---9--9---9--9/11--11-11--11-11------------------------|
C#|-x---x--x---x--x-x---x--x---x--x-x---x--x---x--x-------------------------|
G#|-5---5--5---5--5/7---7--7---7--7/9---9--9---9--9-------------------------|
C#|-0---0--0---0--0-0---0--0---0--0-0---0--0---0--0---x2--------------------|
You don't have to play the top E string, I just think it sounds better.

D#|-5---5--5--5---5--5--5---5--5--5---5--5----------------------------------|
A#|-7---7--7--7---7--7--7---7--7--7---7--7----------------------------------|
F#|-7---7--7--7---7--7--7---7--7--7---7--7--7-------------------------------|
C#|-5---5--5--5---5--5--5---5--5--5---5--5--x-------------------------------|
G#|-5---5--5--5---5--5--5---5--5--5---5--5--5-(let ring)--------------------|
C#|-5---5--5--5---5--5--5---5--5--5---5--5--0-------------------------------|

(OR; In the live version, sometimes Chris plays the first part of the intro
  like this:)
D#|-------------------------------------------------------------------------|
A#|-7---7--7---7--7/8---8--8---8--8/10--10-10--10-10------------------------|
F#|-7---7--7---7--7/9---9--9---9--9/11--11-11--11-11------------------------|
C#|-x---x--x---x--x-x---x--x---x--x-x---x--x---x--x-------------------------|
G#|-5---5--5---5--5/7---7--7---7--7/9---9--9---9--9-------------------------|
C#|-0---0--0---0--0-0---0--0---0--0-0---0--0---0--0---x2--------------------|
(...which I think sounds way cooler.)

[Verse] 
(pretty much the same as the intro, but I've done it with the words
  so you can see where everything fits)
D#|-------------------------------------------------------------------------|
A#|-------------------------------------------------------------------------|
F#|------7---7--7---7--7/9---9--9---9--9/11--11-11--11-11-------------------|
C#|------x---x--x---x--x-x---x--x---x--x-x---x--x---x--x--------------------|
G#|------5---5--5---5--5/7---7--7---7--7/9---9--9---9--9--------------------|
C#|------0---0--0---0--0-0---0--0---0--0-0---0--0---0--0--------------------|
(And I Lo-           ng    for you   to    appear, after)

D#|-------------------------------------------------------------------------|
A#|-------------------------------------------------------------------------|
F#|-7---7--7---7--7/9---9--9---9--9/11--11-11--11-11------------------------|
C#|-x---x--x---x--x-x---x--x---x--x-x---x--x---x--x-------------------------|
G#|-5---5--5---5--5/7---7--7---7--7/9---9--9---9--9-------------------------|
C#|-0---0--0---0--0-0---0--0---0--0-0---0--0---0--0-------------------------|
  (Lo-            sing    your   way   across star-riddled)

D#|-5---5--5--5---5--5--5---5--5--5---5--5----------------------------------|
A#|-7---7--7--7---7--7--7---7--7--7---7--7----------------------------------|
F#|-7---7--7--7---7--7--7---7--7--7---7--7--7--7-7--7--7-7/9--9-9\7--7-7----|
C#|-5---5--5--5---5--5--5---5--5--5---5--5--x--x-x--x--x-x-x--x-x-x--x-x----|
G#|-5---5--5--5---5--5--5---5--5--5---5--5--5--5-5--5--5-5/7--7-7\5--5-5----|
C#|-5---5--5--5---5--5--5---5--5--5---5--5--0--0-0--0--0-0-0--0-0-0--0-0----|
  (skies,                  To carry you ho-me)

[Repeat] 
(in second round of verses, only play once)

[Then]
(there's TWO ways of playing this following part. The first one is
what Chris plays in the recorded version, the second is just good for
when you're playing the song by yourself and want some meaty chords. I use
the second way just 'cos it sounds a bit juicier.)
D#|--------------------------------5---5--5---------------------------------|
A#|--------------------------------5---5--5---------------------------------|
F#|--11--11-11\9---9--9\7---7--7---7---7--7---------------------------------|
C#|--x---x--x--x---x--x-x---x--x---5---5--5---------------------------------|
G#|--9---9--9-\7---7--7\5---5--5---5---5--5---------------------------------|
C#|--0---0--0--0---0--0-0---0--0---5---5--5-------x3------------------------|
 (I che-      rish     my          loss,
 A ge-       ntle     re-         minder,
   Li-   fe  is       un-         kind)

D#|--5---5--5---5----5--5---------------------------------------------------|
A#|--5---5--5---5----5--5---------------------------------------------------|
F#|--6---6--6h7-7----6--6h7-------------------------------------------------|
C#|--5---5--5---5----5--5----------------(back to intro and verse)----------|
G#|--5---5--5---5----5--5---------------------------------------------------|
C#|--5---5--5---5----5--5---------------------------------------------------|
         (...at the best of times)

(Here's the second way of doing it with the juicy chords:)
D#|--5---5--5--5---5--5---2---2--2---5---5--5-------------------------------|
A#|--7---7--7--5---5--5---3---3--3---5---5--5-------------------------------|
F#|--7---7--7--7---7--7---4---4--4---7---7--7-------------------------------|
C#|--7---7--7--7---7--7---4---4--4---5---5--5-------------------------------|
G#|--5---5--5--5---5--5---2---2--2---5---5--5-------x4----------------------|
C#|--0---0--0--0---0--0---2---2--2---5---5--5-------------------------------|

  THEN; there's this part:
D#|-------------------------------------------------------------------------|
A#|-------------------------------------------------------------------------|
F#|-11--11-11/9---9--9---7\9--9\11--11\12/11--------------------------------|
C#|-x---x--x--x---x--x---x-x--x-x---x--x--x---------------------------------|
G#|-9---9--9-/7---7--7---5\7--7\9---9-\10/9---------------------------------|
C#|-0---0--0--0---0--0---0-0--0-0---0--0--0---------------------------------|
 Bra-ce your-self, 'cos I think I'm co-ming f-or you
 (Lo-ok up in-to the sk-y)

D#|-------------------------------------------------------------------------|
A#|-------------------------------------------------------------------------|
F#|-11--11-11/9---9--9---7\9--9\11--11\9/7----------------------------------|
C#|-x---x--x--x---x--x---x-x--x-x---x--x-x----------------------------------|
G#|-9---9--9-/7---7--7---5\7--7\9---9-\7/5----------------------------------|
C#|-0---0--0--0---0--0---0-0--0-0---0--0-0----------------------------------|

D#|-------------------------------------------------------------------------|
A#|-------------------------------------------------------------------------|
F#|-11--11-11/9---9--9---7\9--9\11--11\12/11--------------------------------|
C#|-x---x--x--x---x--x---x-x--x-x---x--x--x---------------------------------|
G#|-9---9--9-/7---7--7---5\7--7\9---9-\10/9---------------------------------|
C#|-0---0--0--0---0--0---0-0--0-0---0--0--0---------------------------------|

D#|-------------------------------------------------------------------------|
A#|-------------------------------------------------------------------------|
F#|-11--11-11/9---9--9---7\9--9\11--11\9/7----7\9--9\11--11\9/7-------------|
C#|-x---x--x--x---x--x---x-x--x-x---x--x-x----x-x--x-x---x--x-x-------------|
G#|-9---9--9-/7---7--7---5\7--7\9---9-\7/5----5\7--7\9---9-\7/5-------------|
C#|-0---0--0--0---0--0---0-0--0-0---0--0-0----0-0--0-0---0--0-0-------------|

(Basically, that's a whole lot of sliding up and down on the fret board :)

[FINALLY]
(the real pretty-sounding part:)
  (I found this way of playing it by watching a recording from a concert.
  If this is too difficult, other tabs have a different method.)

D#|-------------------------------------------------------------------------|
A#|-------7---------7----5-----5------8\7--5--------------------------------|
F#|-------7-----------7-----7-----7-----------7-----------------------------|
C#|-------0-----------------------------------------------------------------|
G#|-------------------------------------------------------------------------|
C#|--0----------0-----------------------------------------------------------|

D#|----------------------------------7--5-----------------------------------|
A#|-------7---------7----5-----5-----------7--------------------------------|
F#|-------7-----------7-----7-----7-----------7-----------------------------|
C#|-------0-----------------------------------------------------------------|
G#|-------------------------------------------------------------------------|
C#|--0----------0-----------------------------------------------------------|

D#|-------------------------------------------------------------------------|
A#|-------7---------7----5-----5-----8\7--5-------------easiest way to do---|
F#|-------7-----------7-----7-----7----------7----------this is to play-----|
C#|-------5---------------------------------------------it like a bar chord-|
G#|-------------------------------------------------------------------------|
C#|--5----------5-----------------------------------------------------------|

D#|----------------------------------7--5-----------------------------------|
A#|-------7---------7----5-----5-----------7--------------------------------|
F#|-------7-----------7-----7-----7-----------7-----------------------------|
C#|-------5-----------------------------------------------------------------|
G#|---------------------------------------------------repeat whole riff x2--|
C#|--5----------5-----------------------------------------------------------|

D#|-0-0-0-0-0-0-0-0-7-7-7-7-7-7-7-7-9--9--9--9--9--9--9--9--5-5-5-5-5-5-5-5-|
A#|-0-0-0-0-0-0-0-0-7-7-7-7-7-7-7-7-9--9--9--9--9--9--9--9--8-8-8-8-8-8-8-7-|
F#|-7-7-7-7-7-7-7-7-9-9-9-9-9-9-9-9-11-11-11-11-11-11-11-11-7-7-7-7-7-7-7-7-|
C#|-0-0-0-0-0-0-0-0-7-7-7-7-7-7-7-7-9--9--9--9--9--9--9--9--5-5-5-5-5-5-5-5-|
G#|-0-0-0-0-0-0-0-0-7-7-7-7-7-7-7-7-9--9--9--9--9--9--9--9--5-5-5-5-5-5-5-5-|
C#|-0-0-0-0-0-0-0-0-7-7-7-7-7-7-7-7-9--9--9--9--9--9--9--9--5-5-5-5-5-5-5-5-|
 (Ho-me could be   any-where when  I am ho-    lding       y-     ou)

[END]

************************************

| /  Slide up
| x  Dead note
| \  Slide down
| h  Hammer-on 

************************************
Suggest correction
comments
print report bad tab
20 comments total. Showing first comments.
+2 reply
hidden_agenda 1,731 Aug 06, 2008 02:03 AM

awsome tab m8, but one problem.

the outro is just simple power chords

and the chords for the outro are: C#5- G#5- F5- F#5

+3 reply
greenelephants 10 Oct 05, 2008 02:07 PM

Great tab. Watched your YouTube vid too, nicely done.

Rofl at "Repeat a million times". So true haha.

+3 reply
bigshoes= 72 Oct 25, 2008 11:25 AM

thats a sick tab, struggled counting to a million though

guest
You may want to rate the tab now too:
select rating
Wanna post a correction for this tab? Suggest correction