Oops, an error
Loading. Please wait.

Adieu Tab

version 3
version 3

Whole song

Interactive

8,832 views 18 this week
4 commentsread comments
1 2 3 4 5
accurate
x 8
add to favorites
launch autoscroll
font size
0
reset
how to read this tab
guitar tuner
Tab Pro tools
  • play this tab
  • loop segment
  • change instrument
  • show fretboard
  • metronome
Autoscroll
slow
fast
+/-
esc
set tempo
stop
Contributor
Theres been a lot of different tabs on the internet.
and they all play it differently to me..
so i thought id put my way up.
I think it sounds pretty much the same.

Song: Adieu
Artist: Enter Shikari
Album: Take To The Skies (2007)
Tabbed by: Fred Holmes
Email: Fredholmes@hotmail.co.uk

Tuning: C# G# C# F# A# D#

Intro Part 1 (0:01-0:10) approx
The rhythm is similiar to this...
e|--------------------------------------------------------------------------|
B|--------------------------------------------------------------------------|
G|---7--7-7-7/9-9-9--9--9-9-9/11-11-11--11/12-12-12\7-----------------------|
D|---x--x-x-x/x-x-x--x--x-x-x/x -x -x --x /x -x -x \x-----------------------
A|---5--5-5-5/7-7-7--7--7-7-7/9 -9 -9 --9 /10-10-10\5-----------------------
C#|--0--0-0-0/0-0-0--0--0-0-0/0 -0 -0 --0 /0 -0 -0 \0-----------------------


Intro Part 2  (0:11-0:20) approx

e|--------------------------------------------------------------------------|
B|--------------------------------------------------------------------------|
G|---7-7-7-7--7-7-7-7--7-7-7-7--2-2-2-2/4-4-4-4\2-2-2-2--2------------------|
D|---5-5-5-5--5-5-5-5--5-5-5-5--0-0-0-0/0-0-0-0\0-0-0-0--0------------------|
A|---5-5-5-5--5-5-5-5--5-5-5-5--0-0-0-0/0-0-0-0\0-0-0-0--0------------------|
C#|--5-5-5-5--5-5-5-5--5-5-5-5--0-0-0-0/0-0-0-0\0-0-0-0--0------------------|


Verse Part 1  (0:20-0:29)  approx
The rhythm is similiar to this...
e|--------------------------------------------------------------------------|
B|--------------------------------------------------------------------------|
G|---7--7-7-7/9-9-9--9--9-9-9/11-11-11--11/12-12-12\7-----------------------|
D|---x--x-x-x/x-x-x--x--x-x-x/x -x -x --x /x -x -x \x-----------------------
A|---5--5-5-5/7-7-7--7--7-7-7/9 -9 -9 --9 /10-10-10\5-----------------------
C#|--0--0-0-0/0-0-0--0--0-0-0/0 -0 -0 --0 /0 -0 -0 \0-----------------------
And I long for you to appear...


Verse Part 2  (0:30-0:38) approx

e|--------------------------------------------------------------------------|
B|--------------------------------------------------------------------------|
G|---7-7-7-7--7-7-7-7--7-7-7-7--2-2-2-2/4-4-4-4\2-2-2-2--2------------------|
D|---5-5-5-5--5-5-5-5--5-5-5-5--0-0-0-0/0-0-0-0\0-0-0-0--0------------------|
A|---5-5-5-5--5-5-5-5--5-5-5-5--0-0-0-0/0-0-0-0\0-0-0-0--0------------------|
C#|--5-5-5-5--5-5-5-5--5-5-5-5--0-0-0-0/0-0-0-0\0-0-0-0--0------------------|
To carry you home...


Verse Part 1  (0:38-0:48) approx
The rhythm is similiar to this...
e|--------------------------------------------------------------------------|
B|--------------------------------------------------------------------------|
G|---7--7-7-7/9-9-9--9--9-9-9/11-11-11--11/12-12-12\7-----------------------|
D|---x--x-x-x/x-x-x--x--x-x-x/x -x -x --x /x -x -x \x-----------------------
A|---5--5-5-5/7-7-7--7--7-7-7/9 -9 -9 --9 /10-10-10\5-----------------------
C#|--0--0-0-0/0-0-0--0--0-0-0/0 -0 -0 --0 /0 -0 -0 \0-----------------------
And I long for you to appear...


Verse Part 2  (0:49-0:57)  approx

e|--------------------------------------------------------------------------|
B|--------------------------------------------------------------------------|
G|---7-7-7-7--7-7-7-7--7-7-7-7--2-2-2-2/4-4-4-4\2-2-2-2--2------------------|
D|---5-5-5-5--5-5-5-5--5-5-5-5--0-0-0-0/0-0-0-0\0-0-0-0--0------------------|
A|---5-5-5-5--5-5-5-5--5-5-5-5--0-0-0-0/0-0-0-0\0-0-0-0--0------------------|
C#|--5-5-5-5--5-5-5-5--5-5-5-5--0-0-0-0/0-0-0-0\0-0-0-0--0------------------|
To carry you home...


I am unsure on the chorus at the moment.. but i will add it up soon.


Intro Part 1 (1:19-1:28) approx
The rhythm is similiar to this...
e|--------------------------------------------------------------------------|
B|--------------------------------------------------------------------------|
G|---7--7-7-7/9-9-9--9--9-9-9/11-11-11--11/12-12-12\7-----------------------|
D|---x--x-x-x/x-x-x--x--x-x-x/x -x -x --x /x -x -x \x-----------------------
A|---5--5-5-5/7-7-7--7--7-7-7/9 -9 -9 --9 /10-10-10\5-----------------------
C#|--0--0-0-0/0-0-0--0--0-0-0/0 -0 -0 --0 /0 -0 -0 \0-----------------------


Intro Part 2  (1:29-0:1:37) approx

e|--------------------------------------------------------------------------|
B|--------------------------------------------------------------------------|
G|---7-7-7-7--7-7-7-7--7-7-7-7--2-2-2-2/4-4-4-4\2-2-2-2--2------------------|
D|---5-5-5-5--5-5-5-5--5-5-5-5--0-0-0-0/0-0-0-0\0-0-0-0--0------------------|
A|---5-5-5-5--5-5-5-5--5-5-5-5--0-0-0-0/0-0-0-0\0-0-0-0--0------------------|
C#|--5-5-5-5--5-5-5-5--5-5-5-5--0-0-0-0/0-0-0-0\0-0-0-0--0------------------|


Verse Part 1  (1:38-1:47)  approx
The rhythm is similiar to this...
e|--------------------------------------------------------------------------|
B|--------------------------------------------------------------------------|
G|---7--7-7-7/9-9-9--9--9-9-9/11-11-11--11/12-12-12\7-----------------------|
D|---x--x-x-x/x-x-x--x--x-x-x/x -x -x --x /x -x -x \x-----------------------
A|---5--5-5-5/7-7-7--7--7-7-7/9 -9 -9 --9 /10-10-10\5-----------------------
C#|--0--0-0-0/0-0-0--0--0-0-0/0 -0 -0 --0 /0 -0 -0 \0-----------------------
And I long for you to appear...


Verse Part 2  (1:47-1:56) approx

e|--------------------------------------------------------------------------|
B|--------------------------------------------------------------------------|
G|---7-7-7-7--7-7-7-7--7-7-7-7--2-2-2-2/4-4-4-4\2-2-2-2--2------------------|
D|---5-5-5-5--5-5-5-5--5-5-5-5--0-0-0-0/0-0-0-0\0-0-0-0--0------------------|
A|---5-5-5-5--5-5-5-5--5-5-5-5--0-0-0-0/0-0-0-0\0-0-0-0--0------------------|
C#|--5-5-5-5--5-5-5-5--5-5-5-5--0-0-0-0/0-0-0-0\0-0-0-0--0------------------|
To carry you home...


I am unsure on the chorus at the moment.. but i will add it up soon.


Bridge Part 1 (2:18-2:36) approx

e|----------------------------------------------------------------------------|
B|----------------------------------------------------------------------------|
G|---7-7-7--7/9--9-9-9--7/9-9/11-11/12-12\7-----------------------------------|
D|---x-x-x--x/x--x-x-x--x/x-x/x -x /x -x \x-----------------------------------|
A|---5-5-5--5/7--7-7-7--5/7-7/9 -9 /10-10\5-----------------------------------|
C#|--0-0-0--0/0--0-0-0--0/0-0/0 -0 /0 -0 \0-----------------------------------|

Bridge Part 2 (2:37-2:42)  approx
e|--------------------------------------------------------------------------|
B|--------------------------------------------------------------------------|
G|---7/9-9/11-11/12-12\7----------------------------------------------------|
D|---x/x-x/x -x /x -x \x----------------Repeat as necessary-----------------|
A|---5/7-7/9 -9 /10-10\5----------------------------------------------------|
C#|--0/0-0/0 -0 /0 -0 \0----------------------------------------------------|
Brace your self...
Look up into the skies...

Outro Part 1  (2:42-3:16) approx

e|----2----2-0---0---3--2--0-------2----2-0---0---7--5--2-------------------|
B|----3----------------------3-----3----------------------3-----------------|
G|----2----------------------------2----------------------------------------|
D|----0---0----0---0---------------0---0----0---0---------------------------|
A|--------------------------------------------------------------------------|
C#|--0---------------------------0------------------------------------------|


Outro Part 2   (3:16-5:40)  approx


e|-------------------------------------------------------------------------|
B|-------------------------------------------------------------------------|
G|----2-2-2-2-2-2-2-2--9-9-9-9-9-9-9-9--11-11-11-11-11-11-11-11--7-7-7-7-7-|
D|----0-0-0-0-0-0-0-0--7-7-7-7-7-7-7-7--9 -9 -9 -9 -9 -9 -9 -9 --5-5-5-5-5
A|----0-0-0-0-0-0-0-0--7-7-7-7-7-7-7-7--9 -9 -9 -9 -9 -9 -9 -9 --5-5-5-5-5
C#|---0-0-0-0-0-0-0-0--7-7-7-7-7-7-7-7--9 -9 -9 -9 -9 -9 -9 -9 --5-5-5-5-5
Carryed on from above
e|------------------------------------------------------------------------|
B|------------------------------------------------------------------------|
G|----7-7-7---------------------------------------------------------------|
D|----5-5-5---------------------------------------------------------------|
A|----5-5-5---------------------------------------------------------------|
C#|---5-5-5---------------------------------------------------------------|

Home could be anywhere when i am holding you...


End On

e|------------------------------------------------------------------------|
B|------------------------------------------------------------------------|
G|----2-------------------------------------------------------------------|
D|----0-------------------------------------------------------------------|
A|----0-------------------------------------------------------------------|
C#|---0-------------------------------------------------------------------|

Enter Shikari - Adieu Lyrics

And I long for you to appear
After losing your way across star riddled skies
To carry you home
And I long for you to appear
After losing your way across star riddled skies
To carry you home

I cherish my loss a gentle reminder
That life is unkind at the best of times

And I long for you to appear
After losing your way across star riddled skies
To carry you home

I cherish my loss a gentle reminder
That life is unkind at the best of times

Brace your self, cause I think Im coming for you. Look up into the skies

Home could be anywhere when i am holding you
Home could be anywhere when i am holding you
Home could be anywhere when i am holding you
Home could be anywhere when i am holding you
Home could be anywhere when i am holding you
Home could be anywhere when i am holding you
Home could be anywhere when i am holding you
Home could be anywhere when i am holding you
Home could be anywhere when i am holding you
Home could be anywhere when i am holding you
Home could be anywhere when i am holding you
etc
comments
print report bad tab
4 comments total. Showing first comments.
0 reply
SnipesW wrote on June 13 2007, 04:48 pm

Great Tab!

Although I think the outro is something like this

e|----2----2-0---0---3--2--0-------2----2-0---0---7--5--2-------------------|
B|----3----------------------3-----3----------------------3-----------------|
G|----2----------------------------2----------------------------------------|
D|----0---0----0---0---------------0---0----0---0---------------------------|
A|--------------------------------------------------------------------------|
C#|--0---------------------------0------------------------------------------|


e|-----------------------------------------------------------7--5-------|
B|----7----7----5---5----8-7-5-----------7-----7----5---5---------7--5--|
G|----7----7------7---7--------7---------7-----7------7---7-------------|
D|----------------------------------------------------------------------|
A|----------------------------------------------------------------------|
C#|--5---5---5------------------------5-----5----5----------------------|

0 reply
tothelighthouse wrote on September 8 2007, 04:00 pm

that outro sounds imaculate above^, but you say the last 4 notes are

7--5-----------|
---------7--5--|
---------------|

but i'm pretty sure it's:

7--5------------|
---------7------|
-----------5----|

xx :)

0 reply
-emleh-appleh- wrote on September 9 2007, 03:37 pm

i think the last 2 notes r
---7---5-------
----------7----
------------7--
it fits in like but both sorta work...
thanks for the tab =] best one on here like

I want to post or [tab]
guest
You may want to rate the tab now too:
select rating
Please do not post tabs as comments. Select "correction" instead!