Oops, an error
Loading. Please wait.

Antwerpen Tab

version 1
version 1

Whole song

Interactive

5,933 views 3 this week
no commentswrite comment
1 2 3 4 5
accurate
x 3
add to favorites
launch autoscroll
font size
0
reset
how to read this tab
guitar tuner
Tab Pro tools
  • play this tab
  • loop segment
  • change instrument
  • show fretboard
  • metronome
×
Best way to learn
"Antwerpen"
Autoscroll
slow
fast
+/-
esc
set tempo
stop
Tuning - 1 whole step down, and then drop D.

PLEASE READ - this is only a basic tab, please listen to the song yourself to get the
idea of timing/ strumming patterns and breaks!. this my first proper tab so its abit
but i worked hard on it and it gives you a general idea of how the song should be 
any questions just hit me up on my profile.

Key- x- muted note
     *- natural harmonic
     \/- slide
     h - hammer on
     p- pull off
     ph- pinched harmonic
     ~ - let the note ring
Intro/verse

d|----------------------------------------------------------------------------|
a|----------------------------------------------------------------------------|
f|----------------------------------------------------------------------------|
c|7-5-7-5-7/10\7-5-7-5-10-10-10-10-10-10-1-1-1-1-1-1-1-1-1--------------------|
g|7-5-7-5-7/10\7-5-7-5-10-10-10-10-10-10-1-1-1-1-1-1-1-1-1--5*----5p0h5p0h5p0-|
C|7-5-7-5-7/10\7-5-7-5-10-10-10-10-10-10-1-1-1-1-1-1-1-1-1--------------------|

PLEASE NOTE - listen to the track to get the proper strumming pattern for the 10 and 1
and also the fret hammer ons/ pull offs

d|--------------------------------ph11------|
a|---------------------------8-10-----------| then repeat opening riff
f|----------------------8h10----------------|
d|-888---7-5-7-5-7-5------------------------|
g|-888---7-5-7-5-7-5------------------------|
C|-888---7-5-7-5-7-5------------------------|


Once you have repeated the intro/verse riff it goes into this-
("I'm not making any sense....")
d|--------------------------------------|
a|--------------------------------------|
f|--------------------------------------|
d|-888---7-5-7-5-7-5--888--7-5-7-5-7-5--|
g|-888---7-5-7-5-7-5--888--7-5-7-5-7-5--|
C|-888---7-5-7-5-7-5--888--7-5-7-5-7-5--|

again listen to the track for the correct timing/strum pattern

syth/keyboard break down

d|--------------------------------------------|
a|--------------------------------------------|
f|--------------------------------------------|
d|-7~-----------7~----5~----3~--0~--3---7~----|
g|-7~-----------7~----5~----3~--0~--3---7~----|
C|-7~-----------7~----5~----3~--0~--3---7~----|


"nah nah nah nah........."


d|-----------------------------------------------------------------------------------------|
a|-----------------------------------------------------------------------------------------|
f|-----------------------------------------------------------------------------------------|
c|7-5-7-5-7/10\7-5-7-5-10-10-10-10-10-10-0-0-0-0-0-0-3-3-3-3-3-3-101010-12-12-12-12-12-12--|
g|7-5-7-5-7/10\7-5-7-5-10-10-10-10-10-10-0-0-0-0-0-0-3-3-3-3-3-3-101010-12-12-12-12-12-12--|
C|7-5-7-5-7/10\7-5-7-5-10-10-10-10-10-10-0-0-0-0-0-0-3-3-3-3-3-3-101010-12-12-12-12-12-12--|


Breakdown part 1

d|-----------------------------|
a|-----------------------------|
f|---------10-ph8--------------|
d|-7-7-5-7-----------10p8------| x3
g|------------------------10---|
C|-----------------------------|


d|------------------------------------------------------------|
a|------------------------------------------------------------|
f|---------10-ph8---------------------------------------------|
d|-7-7-5-7-----------10p8-------------------------------------|
g|------------------------10--10-10-10-10-9-9-9-9-9-9-8-8-8-8-|
C|------------------------------------------------------------|

Breakdown part 2

d|-----------------8-----------------------------8---------------------|
a|----10-8-10-8-10---10-8-10-10-10--10-8-10-8-10---10-8-101010101010---|
f|---------------------------------------------------------------------| x3
d|---------------------------------------------------------------------|
g|---------------------------------------------------------------------|
C|---------------------------------------------------------------------|

d|--------------8-----------------------------8---------------------------------------------|
a|-10-8-10-8-10---10-8-10-10-10--10-8-10-8-10---10-8-101010101010--7-7-7-7-6-6-6-6-5-5-5-5--|
f|------------------------------------------------------------------------------------------|
d|------------------------------------------------------------------------------------------|
g|------------------------------------------------------------------------------------------|
C|------------------------------------------------------------------------------------------|


Breakdown part 3

d|-------------------------------------------|
a|-------------------------------------------|
f|--------14--12~----------------------------|
d|--7-7---x---x-----12-10-7------------------|  x2
g|--7-7---12--10~---12-10-7------------------|
C|--7-7-------------12-10-7------------------|

d|-----------------|
a|-----------------|
f|-----------------|
d|--5~--4~--3~-----|
g|--5~--4~--3~-----|
C|--5~--4~--3~-----|

then repeat that break down intil the end

thats it, happy playing!! =]
comments
We did not receive enough feedback on this tab! Please rate:
print report bad tab
1 2 3 4 5
I want to post or [tab]
guest
You may want to rate the tab now too:
select rating
Please do not post tabs as comments. Select "correction" instead!