Oops, an error
Loading. Please wait.

Antwerpen Bass Tab

version 2
version 2

Whole song

Interactive

2,013 views 1 this week
no commentswrite comment
1 2 3 4 5
excellent!
x 3
add to favorites
launch autoscroll
font size
0
reset
guitar tuner
Autoscroll
slow
fast
+/-
esc
set tempo
stop
Help us to improve Ultimate-Guitar.com Take our survey!
×
Author
----------------------------------------------------------------------------
			     Antwerpen - Enter Shikari
----------------------------------------------------------------------------

Tabbed By : Sid, :D
e-mail: Sidtheboon@hotmail.com
Tuning: Drop C

Intro: (listen to song for timings)
F|-------------------------------------------------------------------------|
C|-------------------------------------------------------------------------|
G|-------------------------------------------------------------------------|
C|---7--5--7--5--7--10--7--5--7---5--10--10--10--10--1--1--1--0--0--0--0--0|

F|--------------------------------------------------------2----------------|
C|------------------------------------------------------1------------------|
G|------------------------------------------------0--3---------------------|
C|---0--0--0--0--8--8--8--7--5--7--7--5--7--7--5--------------7--5--7--5---|

F|-------------------------------------------------------------------------|
C|-------------------------------------------------------------------------|
G|-------------------------------------------------------------------------|
C|---7--5--7--5--7--10--7--5--7---5--10--10--10--10--1--1--1--0--0--0--0--0|

F|-------------------------------------------------------------------------|
C|-------------------------------------------------------------------------|
G|-------------------------------------------------------------------------|
C|---0--0--0--0--8--8--8--7--5--7--7--5--7--7--5---------------------------|

Post-bridge (on 4th time hold the last 7)
F|----------------------------|x4
C|----------------------------|
G|----------------------------|
C|--7-5-7-7-5-7-7-5-8-8-8-7---|

Bridge
F|-----------------------------------------------|
C|-----------------------------------------------|
G|-----------------------------------------------|
C|--7~------5~------3~------0~------3~------7~---|

Next Bit x4 (on the second time don't anything on the second line except the 2 3 3 3)( 
note theres more 0's i just didn't have enough room)
F|-------------------------------------------------------------------------|
C|-------------------------------------------------------------------------|
G|-------------------------------------------------------------------------|
C|---7--5--7--5--7--10--7--5--7--5--10--10--10--10--10--0--0--0--0--3--3--3|

F|------------------------5--4--------------------5------------------------|
C|------------------------------5-----------5--7---------------------------|
G|-----------------3--3----------------------------------------------------|
C|---2--3--3--3--------------------5--5--5---------------------------------|

And the bit after
F|-------------------------------------------------------------------------|
C|----------------7--5/------------------------------7--5/-----------------|
G|----------------------------5p3-0----------------------------0--5--7--5--|
C|---7--7--7--7-------------------------7--7--7--7-------------------------|

F|-------------------------------------------------------------------------|
C|----------------7--5/----------------------------------------------------|
G|-------------------------------------------------------------------------|
C|---7--7--7--7-------------5-5-5-5-5-4-4-4-4-4-3-3-3-3-3------------------|

F|----------------------------------------------------|
C|----------------7--5/-------------------------------|
G|----------------------------------------------------|
C|---7--7--7--7-------------5-5-5-5-5-----------------|

It uses this 3 variations from Beginning of "Go Go Go Go" to end of the song
unless your a complete noob the order is obivious if you listen carefully

Also please not the notes are not all the right timing or amount this tab basically just 
you the notes in order you work out timings and amount etc. :)

contact me on email for correction or kudos ;P
| /  slide up
| \  slide down
| h  hammer-on
| p  pull-off
| ~  vibrato
| +  harmonic
| x  Mute note
============================================================================
Suggest correction
Give kudos to tab author, rate the tab!
1 2 3 4 5
comments
print report bad tab
guest
You may want to rate the tab now too:
select rating
Wanna post a correction for this tab? Suggest correction