Oops, an error
Loading. Please wait.

Anything Can Happen In The Next Half Hour Bass Tab

version 1
version 1

Whole song

Interactive

6,047 views 9 this week
1 commentread comment
1 2 3 4 5
accurate
x 3
add to favorites
launch autoscroll
font size
0
reset
guitar tuner
Tab Pro tools
  • play this tab
  • loop segment
  • change instrument
  • show fretboard
  • metronome
×
Best way to learn
"Anything Can Happen In The Next Half Hour"
Autoscroll
slow
fast
+/-
esc
set tempo
stop
Contributor
this song is awesome but this is my first tab so if its bad then oh well

tuning = drop D + down half a step

C#
G#
C#
F#


intro!

(techno bit) - "his eyes are locked on her"

no bass !

verce!  -  "everything seems to intimadate him"

F#-----------------------------------------------------------|
C#-----------------------------------------------------------|
G#-----------------------------------------------------------|
C#-2-2-2-2-2222-|-2-2-2-2-2222-|-3-3-3-3-3333-|-3-3-3-3-3333-|

  ----------------------------------------------------------|
  ----------------------------------------------------------|
  ----------------------------------------------------------|
  5-5-5-5-5555-|-5-5-5-5-5555-|-7-7-7-7-7777-|-7-7-7-7-7777-|

Verce! [[second part]]

  -------------------------------------------------------------------|
  -------------------------------------------------------------------|
  -------------------------------------------------------------------|
  0000-0000-0000--0000-|-2222-2222-2222--2222-|-3333-3333-3333--3333-|

  --------------------|
  --------------------|
  --------------------|
  5555-5555-5555--5555|

  --------------------|
  --------------------|
  --------------------|        [[Guitar plays on its own for one bar]]
  0-------------------|


Bridge! [[i guess]] *more techno stuff here*

  --------------------------------------------|
  --------------------------------------------|
  --------------------------------------------|
  0000-0000-0000--0000-|-0000-0000-0000--0000-|

  --------------------------------------------|
  --------------------------------------------|
  --------------------------------------------|
  0000-0000-0000--0000-|-0000-0000-0000--0000-|

  ----------------------------------|
  ----------------------------------|
  ----------------------------------|
  0-0-0-0-0-0-0-0-|-3-3-3-3-3-3-3-3-|


Chours!  -  "the curtain goes down"

  ----------------------------------------------------------------------|
  ----------------------------------------------------------------------|
  --------------------------------------------------------9--7--9/11----|
  8-8-8-8-8-8-8-8-|-8-8-8-8-8-8-8-8-|-7-7-7-7-7-7-7-7-|-7--7--7---------|

  ----------------------------------------------------------------------|
  ----------------------------------------------------------------------|
  ----------------------------------------------------------------------|
  8-8-8-8-8-8-8-8-|-8-8-8-8-8-8-8-8-|-7-7-7-7-7-7-7-7-|-7-7-7-7-7-7-7-7-|

  ----------------------------------------------------------------------|
  ----------------------------------------------------------------------|
  --------------------------------------------------------9--7--9/11----|
  8-8-8-8-8-8-8-8-|-8-8-8-8-8-8-8-8-|-7-7-7-7-7-7-7-7-|-7--7--7---------|

  ------------------------------------------------------------------------|
  ------------------------------------------------------------------------|
  ------------------------------------------------------------------------|
  8-8-8-8-8-8-8-8-|-8-8-8-8-8-8-8-8-|-7-7-7-7-7-7-7-7-|-7---7---7---7-----|

Tapping riff!

  --------------------------------------------------------------|
  0-7-12/15-0-7-14-0-7-12-0-7-15/19-0-7-17-0-7-15-0-7-14-0-7-12-|
  --------------------------------------------------------------|
  --------------------------------------------------------------|

verce!

  -----------------------------------------------------------|
  -----------------------------------------------------------|
  -----------------------------------------------------------|
  -2-2-2-2-2222-|-2-2-2-2-2222-|-3-3-3-3-3333-|-3-3-3-3-3333-|

  ----------------------------------------------------------|
  ----------------------------------------------------------|
  ----------------------------------------------------------|
  5-5-5-5-5555-|-5-5-5-5-5555-|-7-7-7-7-7777-|-7-7-7-7-7777-|

Verce! [[second part]]

  -------------------------------------------------------------------|
  -------------------------------------------------------------------|
  -------------------------------------------------------------------|
  0000-0000-0000--0000-|-2222-2222-2222--2222-|-3333-3333-3333--3333-|

  --------------------|
  --------------------|
  --------------------|
  5555-5555-5555--5555|

  --------------------|
  --------------------|
  --------------------|        [[Guitar plays slow bit here]]
  0-------------------|

breakdown! [[slow bit]]

  -----------------------------------------------------------------------|
  -----------------------------------------------------------------------|
  --------------------------------------------------------8-10-6-8-6-5h6-|
  3/8----8h10-|-7----7h10-|-88-888-88-88|888-88-88-888-88----------------|

  -----------------------------------------------------------------------|
  -----------------------------------------------------------------------|
  --------------------------------------------------------8-10-6-8-6-5h6-|
  3/8----8h10-|-7----7h10-|-88-888-88-88|888-88-88-888-88----------------|

  ----------------------------------|
  ----------------------------------|
  ----------------------------------|
  0-0-0-0-0-0-0-0-|-3-3-3-3-3-3-3-3-|

Chours!

  ----------------------------------------------------------------------|
  ----------------------------------------------------------------------|
  --------------------------------------------------------9--7--9/11----|
  8-8-8-8-8-8-8-8-|-8-8-8-8-8-8-8-8-|-7-7-7-7-7-7-7-7-|-7--7--7---------|

  ----------------------------------------------------------------------|
  ----------------------------------------------------------------------|
  ----------------------------------------------------------------------|
  8-8-8-8-8-8-8-8-|-8-8-8-8-8-8-8-8-|-7-7-7-7-7-7-7-7-|-7-7-7-7-7-7-7-7-|

  ----------------------------------------------------------------------|
  ----------------------------------------------------------------------|
  --------------------------------------------------------9--7--9/11----|
  8-8-8-8-8-8-8-8-|-8-8-8-8-8-8-8-8-|-7-7-7-7-7-7-7-7-|-7--7--7---------|

  ---------------------------------------------------------------------|
  ---------------------------------------------------------------------|
  ---------------------------------------------------------------------|
  8-8-8-8-8-8-8-8-|-8-8-8-8-8-8-8-8-|-7-7-7-7-7-7-7-7-|7-7-7-7-7-7-7-7-|

outro! part 1

  ----------------------------------------------------------------|
  ----------------------------------------------------------------|
  ----------------------------------------------------------------|
  8-8-8-888-0-0-|-8-8-888-0-0-|-7-7-7-7-7-7-7-7-|-7-7-7-7-7-7-7-7-|

  ----------------------------------------------------------------|
  ----------------------------------------------------------------|
  ----------------------------------------------------------------|
  8-8-8-888-0-0-|-8-8-888-0-0-|-7-7-7-7-7-7-7-7-|-7---7---7---7---|

outro Tapping riff!

  --------------------------------------------------------------|
  0-7-12/15-0-7-14-0-7-12-0-7-15/19-0-7-17-0-7-15-0-7-14-0-7-12-|
  --------------------------------------------------------------|
  --------------------------------------------------------------|

  --------------------------------------------------------------||
  0-7-12/15-0-7-14-0-7-12-0-7-15/19-0-7-17-0-7-15-0-7-14-0-7-12-||
  --------------------------------------------------------------||
  --------------------------------------------------------------||

Thats the end of the song =]
comments
We did not receive enough feedback on this tab! Please rate:
print report bad tab
1 2 3 4 5
1 comment total.
0 reply
chris1110 wrote on February 3 2010, 05:15 pm

completely incorrect, i dunno what tuning you were in dude, but this dosen't sound right at all, just play the bit prior to the breakdown at around 2:55 to get what i mean.

I want to post or [tab]
guest
You may want to rate the tab now too:
select rating
Please do not post tabs as comments. Select "correction" instead!