Oops, an error
Loading. Please wait.

Anything Can Happen In The Next Half Hour Bass

version 2
version 2

Whole song

Interactive

2,964 views 1 this week
no commentswrite comment
1 2 3 4 5
2 more votes to show rating
add to favorites
launch autoscroll
font size
0
reset
guitar tuner
×
Best way to learn
"Anything Can Happen In The Next Half Hour"
Autoscroll
slow
fast
+/-
esc
set tempo
stop
Author
Difficulty
  follow
intermediate
You're tuning has to be spot on otherwise it'll sound nothing like the song best thing 
to use an electronic tuner.

Bass starts at 00:32

Verse
F#---------------------------------------------------|
C#---------------------------------------------------|
G#---------------------------------------------------|
C#-0-0-0-0-0-0-0-0-0-0-0-0-|-8-8-8-8-8-8-8-8-8-8-8-8-|

F#---------------------------------------------------|
C#---------------------------------------------------|
G#---------------------------------------------------|
C#-3-3-3-3-3-3-3-3-3-3-3-3-|-5-5-5-5-5-5-5-5-5-5-5-5-|

F#--------------------------------------------------------------------|
C#--------------------------------------------------------------------|
G#--------------------------------------------------------------------|
C#-0000-0000-0000--0000-|-8888-8888-8888--8888-|-3333-3333-3333--3333-|

F#---------------------------------------------|
C#---------------------------------------------|
G#---------------------------------------------|
C#-5555-5555-5555--5555-|-0*-------------------|

I think this is the bridge for the so

F#--------------------------------------------------------------------|
C#--------------------------------------------------------------------|
G#--------------------------------------------------------------------|
C#-0000-0000-0000--0000-|-0000-0000-0000--0000-|-0000-0000-0000--0000-|

F#--------------------------------------------------------|
C#--------------------------------------------------------|
G#--------------------------------------------------------|
C#-0000-0000-0000--0000-|-0-0-0-0-0-0-0-0-3-3-3-3-7-7-7-7-|

Chorus

F#-----------------------------------------------------------------|
C#-----------------------------------------------------------------|
G#-------------------------------------------------------9-7--9/12-|
C#-8-8-8-8-8-8-8-8-8-8-8-8-8-8-8-8-7-7-7-7-7-7-7-7-|----7-7-7------|

F#-----------------------------------------------------------------|
C#-----------------------------------------------------------------|
G#-----------------------------------------------------------------|
C#-8-8-8-8-8-8-8-8-8-8-8-8-8-8-8-8-7-7-7-7-7-7-7-7-7-7-7-7-7-7-7-7-|

F#-----------------------------------------------------------------|
C#-----------------------------------------------------------------|
G#-------------------------------------------------------9-7--9/12-|
C#-8-8-8-8-8-8-8-8-8-8-8-8-8-8-8-8-7-7-7-7-7-7-7-7-|----7-7-7------|

F#-----------------------------------------------------------------|
C#-----------------------------------------------------------------|
G#-----------------------------------------------------------------|
C#-8-8-8-8-8-8-8-8-8-8-8-8-8-8-8-8-7-7-7-7-7-7-7-7-|-7---7---7-----|

Tapping Riff
You don't need to tap if you don't know how

F#---------------------------------------------------|
C#-0-7-12/15-0-14-0-12-0-7-15/19-0-17-0-15-0-14-0-12-|
G#---------------------------------------------------|
C#---------------------------------------------------|


Verse

F#---------------------------------------------------|
C#---------------------------------------------------|
G#---------------------------------------------------|
C#-0-0-0-0-0-0-0-0-0-0-0-0-|-8-8-8-8-8-8-8-8-8-8-8-8-|

F#---------------------------------------------------|
C#---------------------------------------------------|
G#---------------------------------------------------|
C#-3-3-3-3-3-3-3-3-3-3-3-3-|-5-5-5-5-5-5-5-5-5-5-5-5-|

F#--------------------------------------------------------------------|
C#--------------------------------------------------------------------|
G#--------------------------------------------------------------------|
C#-0000-0000-0000--0000-|-8888-8888-8888--8888-|-3333-3333-3333--3333-|

F#---------------------------------------------|
C#---------------------------------------------|
G#---------------------------------------------|
C#-5555-5555-5555--5555-|-0*-------------------|

Melody
Bass comes back in at 2:54

F#------------------------------------------------------------------------|
C#------------------------------------------------------------------------|
G#-------------------------------------------------------8-10-8-6-8-6-5h6-|
C#-3/12--12h14-10--10h12-|-88-888-88-88-888-88-88-888-88------------------|

F#------------------------------------------------------------------------|
C#------------------------------------------------------------------------|
G#-------------------------------------------------------8-10-8-6-8-6-5h6-|
C#-3/12--12h14-10--10h12-|-88-888-88-88-888-88-88-888-88------------------|

F#---------------------------------|
C#---------------------------------|
G#---------------------------------|
C#-0-0-0-0-0-0-0-0-3-3-3-3-7-7-7-7-|

Chorus

F#-----------------------------------------------------------------|
C#-----------------------------------------------------------------|
G#-------------------------------------------------------9-7--9/12-|
C#-8-8-8-8-8-8-8-8-8-8-8-8-8-8-8-8-7-7-7-7-7-7-7-7-|----7-7-7------|

F#-----------------------------------------------------------------|
C#-----------------------------------------------------------------|
G#-----------------------------------------------------------------|
C#-8-8-8-8-8-8-8-8-8-8-8-8-8-8-8-8-7-7-7-7-7-7-7-7-7-7-7-7-7-7-7-7-|

F#-----------------------------------------------------------------|
C#-----------------------------------------------------------------|
G#-------------------------------------------------------9-7--9/12-|
C#-8-8-8-8-8-8-8-8-8-8-8-8-8-8-8-8-7-7-7-7-7-7-7-7-|----7-7-7------|

F#-----------------------------------------------------------------|
C#-----------------------------------------------------------------|
G#-----------------------------------------------------------------|
C#-8-8-8-8-8-8-8-8-8-8-8-8-8-8-8-8-7-7-7-7-7-7-7-7-7-7-7-7-7-7-7-7-|

Outro Part1

F#-------------------------------------------------------------------|
C#-------------------------------------------------------------------|
G#-------------------------------------------------------------------|
C#-8-8-8-888-0-0-0-|-8-8-888-0-0-0-|-7-7-7-7-7-7-7-7-7-7-7-7-7-7-7-7-|

F#-------------------------------------------------------------------|
C#-------------------------------------------------------------------|
G#-------------------------------------------------------------------|
C#-8-8-8-888-0-0-0-|-8-8-888-0-0-0-|-7-7-7-7-7-7-7-7-|-7---7---7-----|

Outro Part2

F#---------------------------------------------------|
C#-0-7-12/15-0-14-0-12-0-7-15/19-0-17-0-15-0-14-0-12-|
G#---------------------------------------------------|
C#---------------------------------------------------|

F#------------------------------------------------------|
C#-0-7-12/15-0-14-0-12-0-7-15/19-0-17-0-15-0-14-0-12-12-|
G#------------------------------------------------------|
C#------------------------------------------------------|

FIN
This is my first tab so please be nice. :D
Suggest correction
Give kudos to tab author, rate the tab!
1 2 3 4 5
comments
print report bad tab
guest
You may want to rate the tab now too:
select rating
Wanna post a correction for this tab? Suggest correction