Oops, an error
Loading. Please wait.

Arguing With Thermometers Bass Tab

version 2
version 2

Whole song

Interactive

1,902 views 3 this week
no commentswrite comment
1 2 3 4 5
please rate
add to favorites
launch autoscroll
font size
0
reset
guitar tuner
Tab Pro tools
  • play this tab
  • loop segment
  • change instrument
  • show fretboard
  • metronome
×
Best way to learn
"Arguing With Thermometers"
Autoscroll
slow
fast
+/-
esc
set tempo
stop
Contributor
Difficulty
Tuning
novice
C F A# D# G C
F -------------------|---------------------|
C -------------------|---------------------|
G -------------------|---------------------|
C --1/3333-----7-----|---0-3-8-7-1-33------|

  -------------------|-------------------|----------------------|
   -------------------|-------------------|---------------------|
   -------------------|-------------------|---------------------|
   ---1/3333-----7----|---1/3333---------|----------------------|

  -------------------|-------------------|---------------------|
  -------------------|-------------------|---------------------|
  -------------------|-------------------|---------------------|
  --1/3333-----7-----|---0-3-8-7-1-33---|-----11111------------|

  -------------------|-------------------|----------------------|
   -------------------|-------------------|---------------------|
   -------------------|-------------------|---------------------|
   ---1/3333-----7----|---1/3333---------|---0-3-8-7-1-33-------|


  "That's the sound of another door shutting in.."

   -------------------2-2--|--------------------------| x4
   ---4-4-444--666--------|--4-4-444--666--2-2--------|
   ------------------------|--------------------------|
   ------------------------|--------------------------|


  "Yeah, yeah yeah, were all addicted..."

   --------------------|-----------------| x2
   --------------------|-----------------|                  Not really necessary
   --------------------|-----------------|
   ---444444/161616---|---444444/161616--|

   Wub wub wub wub wub wub wittawub wub wub wub wub

   -----------------------------| x
   -----------------------------|
   ------------------2----------|
   ---4 4--555-4-4-5----5-0-----|

  "That's the sound.."

   -------------------2-2--|--------------------------| x4
   ---4-4-444--666--------|--4-4-444--666--2-2--------|
   ------------------------|--------------------------|
   ------------------------|--------------------------|

   "So let me get this straight..."

   --------------------|-----------------| x2
   --------------------|-----------------|                  Not really necessary
   --------------------|-----------------|
   ---444444/161616---|---444444/161616--|


   "We'll take you down!"

   -------------------|-------------------|---------------------|
   -------------------|-------------------|---------------------|
   -------------------|-------------------|---------------------|
   --1/3333-----------|---1/3333---------|---1/3333-------------|

                                            "Stand your Ground, you know there's oil in the.."
   --------------------|-------------------------|
   --------------------|-------------------------|
   --------------------|-------------2-----------|
   --1-1-1-1-111111---|--4--5-4--5----5-0--------|


    "ICEE"
   -------------------------------|
   -------------------------------|
   ------------------2------------|
   --4-4--555-4-4-5---5-0---------|


"Except nothing short of complete reversal"
   -----------4------------|
   --4-5-4-5---------------|
   ------------------------|
   ------------------------|
comments
We did not receive enough feedback on this tab! Please rate:
print report bad tab
1 2 3 4 5
I want to post or [tab]
guest
You may want to rate the tab now too:
select rating
Please do not post tabs as comments. Select "correction" instead!