Oops, an error
Loading. Please wait.

Arguing With Thermometers Bass Tab

version 3
version 3

Whole song

Interactive

3,244 views 6 this week
no commentswrite comment
1 2 3 4 5
accurate
x 3
add to favorites
launch autoscroll
font size
0
reset
guitar tuner
Tab Pro tools
  • play this tab
  • loop segment
  • change instrument
  • show fretboard
  • metronome
×
Best way to learn
"Arguing With Thermometers"
Autoscroll
slow
fast
+/-
esc
set tempo
stop
Contributor
Hey Guys,
My first tab here, my main focus is on the Verse which has a great Bass line, hope you like it!

Tuning = DAbDbGb

Intro
Gb-----------------------------------------------------     -------|
Db-----------------------------------------------------     -------|
Ab-----------------------------------------------------     -------|
D --222---5~------02540--22--220----222---5-----5402--- (X2)-02540-|(X1)

Intro to Verse
 ------------------------------|
 ------------------------------|
 --4---------------------------|
 ---7---77--57--2-2-4-4--------|  (X1)

Verse
 -------------------------------------------------------------------|
 -------------------------------------------------------------------|
 --9----------------9-----------------4-----------------------------|
 ---12---1212--1012--12---1212--1012---7---77--57--2-2-4-4----------|(X3)

 -----------------------------|
 -----------------------------|
 -----------------------------|
 --222222222/14141414141414---|  (X4)

Bass-step part
 ------------------------------------------------------|
 ------------------------------------------------------|
 --------------2--------------------------------2------|
 --2-23332--23--30---(X4)---------22--33--2-2-3--30----|(X4)

Intro to Verse
 ------------------------------|
 ------------------------------|
 --4---------------------------|
 ---7---77--57--2-2-4-4--------|  (X1)

Verse
 -------------------------------------------------------------------|
 -------------------------------------------------------------------|
 --9----------------9-----------------4-----------------------------|
 ---12---1212--1012--12---1212--1012---7---77--57--2-2-4-4----------|(X3)

 -----------------------------|
 -----------------------------|
 -----------------------------|
 --222222222/14141414141414---|  (X4)

 ------------------------------------------|
 ------------------------------------------|
 ------------------------------------------|
 --22222---(X3)--2-2-2-2-22222-22222-------|(X1)

Bass-step part
 ------------------------------------------------------|
 ------------------------------------------------------|
 --------------2--------------------------------2------|
 --2-23332--23--30---(X4)---------22--33--2-2-3--30----|(X4)

Outro
 ----------------------------------------4------|
 ----------------------------4--5--4--5---------|
 --------------2--------------------------------|
 --222333222-3--30--(X2)----2--3--2--3--3-------|(X2)
comments
We did not receive enough feedback on this tab! Please rate:
print report bad tab
1 2 3 4 5
I want to post or [tab]
guest
You may want to rate the tab now too:
select rating
Please do not post tabs as comments. Select "correction" instead!