Oops, an error
Loading. Please wait.

Empty Tab

version 2
version 2

Intro

Whole song

Interactive

925 views 1 this week
no commentswrite comment
1 2 3 4 5
2 more votes to show rating
add to favorites
launch autoscroll
font size
0
reset
how to read this tab
guitar tuner
Autoscroll
slow
fast
+/-
esc
set tempo
stop
Help us to improve Ultimate-Guitar.com Take our survey!
×
Author
Difficulty
novice
This is just the intro and verse, its all i could work out :)

(intro)

Eb|-------------|
Bb|-------------|
Gb|-------------|
Db|-4-4---0-----|
Ab|-4-4---0-----|
Db|-4-4---0-----|

(verse)


Eb|------------------------------------------------------------|
Bb|------------------------------------------------------------|
Gb|------------------------------------------------------------|
Db|-4-4-4-4-4-4-4--0-0-0-0-0-0-0--7-7-7-7-7-7-7--9-9-9-9-9-9-9-|
Ab|-4-4-4-4-4-4-4--0-0-0-0-0-0-0--7-7-7-7-7-7-7--9-9-9-9-9-9-9-|
Db|-4-4-4-4-4-4-4--0-0-0-0-0-0-0--7-7-7-7-7-7-7--9-9-9-9-9-9-9-|

that's all i know.
Suggest correction
Give kudos to tab author, rate the tab!
1 2 3 4 5
comments
print report bad tab
guest
You may want to rate the tab now too:
select rating
Wanna post a correction for this tab? Suggest correction