Oops, an error
Loading. Please wait.

Fanfare For The Concious Man Tab

version 1
version 1

Whole song

Interactive

2,504 views 1 this week
5 commentsread comments
1 2 3 4 5
accurate
x 3
add to favorites
launch autoscroll
font size
0
reset
how to read this tab
guitar tuner
Autoscroll
slow
fast
+/-
esc
set tempo
stop
Help us to improve Ultimate-Guitar.com Take our survey!
×
Author
Difficulty
Tuning
novice
C G C F A D
Band: Enter Shikari
Song: Fanfare For The Conscious Man

Tuning: Drop C

Intro and main part:

|-------------------------|---------------------------|
|-------------------------|---------------------------|
|---------------------7-7-|-----------------------7-7-|
|-5-5-5-5-5-5-5-5-5-5-x-x-|--9-9-9-9-9-9-9-9--7-7-x-x-|
|-5-5-5-5-5-5-5-5-5-5-5-5-|--9-9-9-9-9-9-9-9--7-7-5-5-|
|-5-5-5-5-5-5-5-5-5-5-----|--9-9-9-9-9-9-9-9--7-7-----|

Chorus

|-----------------------|-----------------------|
|-----------------------|-----------------------|
|--9-9-9-9--11-11-11-11-|--9-9-9-9--11-11-11-11-|
|--x-x-x-x--x--x--x--x--|--x-x-x-x--x--x--x--x--|
|--7-7-7-7--9--9--9--9--|--7-7-7-7--9--9--9--9--|
|-----------------------|-----------------------|


|-----------------------|---------------------------|
|-----------------------|---------------------------|
|--9-9-9-9--11-11-11-11-|-18-18-18-18--14-14-14-14--|
|--x-x-x-x--x--x--x--x--|-x--x--x--x---x--x--x--x---|
|--7-7-7-7--9--9--9--9--|-16-16-16-16--12-12-12-12--|
|-----------------------|---------------------------|




Could be wrong, but I think its pretty much that throughout.
Suggest correction
Give kudos to tab author, rate the tab!
1 2 3 4 5
comments
print report bad tab
5 comments total. Showing first comments.
0 reply
Destamoon 92 wrote on July 30 2009, 01:02 am

Sounds about right

0 reply
skillsthatkills 166 wrote on August 6 2009, 10:23 am

|-----------------------|--------------------------|
|-----------------------|--------------------------|
|--9-9-9-9--11-11-11-11-|--9-9-9-9--11-/-9-/-5--555|
|--x-x-x-x--x--x--x--x--|--x-x-x-x--x--/-x-/-x--xxx|
|--7-7-7-7--9--9--9--9--|--7-7-7-7--9--/-7-/-3--333|
|-----------------------|--------------------------|

|-----------------------|---------------------------|
|---------------------------|
|-18-18-18-18--14-14-14-14--|
|-x--x--x--x---x--x--x--x---|
|-16-16-16-16--12-12-12-12--|
|---------------------------|

0 reply
skillsthatkills 166 wrote on August 15 2009, 11:28 am

sorry, chorus should be:

|-----------------------|--------------------------|
|-----------------------|--------------------------|
|--9-9-9-9--11-11-11-11-|--9-9-9-9--11-/-9-/-7--777|
|--x-x-x-x--x--x--x--x--|--x-x-x-x--x--/-x-/-x--xxx|
|--7-7-7-7--9--9--9--9--|--7-7-7-7--9--/-7-/-5--555|
|-----------------------|--------------------------|

|-----------------------|---------------------------|
|---------------------------|
|-18-18-18-18--14-14-14-14--|
|-x--x--x--x---x--x--x--x---|
|-16-16-16-16--12-12-12-12--|
|---------------------------|

guest
You may want to rate the tab now too:
select rating
Wanna post a correction for this tab? Suggest correction