Oops, an error
Loading. Please wait.

Gandhi Mate Gandhi Tab

version 1
version 1

Whole song

Interactive

6,372 views 12 this week
2 commentsread comments
1 2 3 4 5
excellent!
x 3
add to favorites
launch autoscroll
font size
0
reset
how to read this tab
guitar tuner
Tab Pro tools
  • play this tab
  • loop segment
  • change instrument
  • show fretboard
  • metronome
×
Best way to learn
"Gandhi Mate Gandhi"
Autoscroll
slow
fast
+/-
esc
set tempo
stop
Contributor
Difficulty
Tuning
intermediate
C G C F A D
-------------------------------------------------------------------------------
                             Gandhi Mate, Gandhi - ENTER SHIKARI
-------------------------------------------------------------------------------
Tabbed by: JJ
E-mail: jirkujaroslav@seznam.cz

Tuning: Drop C

This is probably a very first tab for this song here, which is crazy... I´ll appreciate 
and acknowledge
all constructive corrections (please on my email). Especially the "tapping" part was 
really tough to catch.
Thanks!

20/6/2012 Sam Rulez D00d correction in the verse riff and "calm down" part. Big thanks! 

Guitar starts at 1:10

d|-------[--------------------------------------------------------------]-----------------------|
a|-------[--------------------------------------------------------------]-----------------------|
f|-------[---------4h7-----4h7-----------------10-10-10-9--4-4----------]-----8-8-8-8-88889/----|
c|-3333--[-3h6-3h6-----3h6----------3h6-3333---10-10-10-9--4-4-------33-]-----8-8-8-8-88888/----|
g|-3333--[------------------------------3333---8---8--8-7--2-2--3*3*-33-]-----6-6-6-6-66666/----|
c|-3333--[------------------------------3333--------------------3*3*-33-]-----------------------|
    don´t let sound!           "RIFF1" 3x fully, then just the "tapping" part and end on 
the 688


calm down, remember Gandhi...
1:45
d|---------------------------------------------------------------------------|
a|-----18--18--18--18--16--18--16--18--15--18--15--18--15--15--15~ ----------|
f|------17--17--17--17--15--15--15--15--15--15--15--15--15--15---------------|
c|---------------------------------------------------------------------------|
g|---------------------------------------------------------------------------|
c|---------------------------------------------------------------------------|

then

d|----------|
a|----------|
f|----------|
c|---3~ 3~ -|  and back to RIFF1
g|---3~ 3~ -|
c|---3~ 3~ -|


2:20 (We stop, think...)

Mute your strings and tap this:
d|---------------------------------------------------------------------------|
a|---------------------------------------------------------------------------|
f|--------------------10------10---------------------------------------------|
c|-10--------10---11------------11-------------------------------------------|
g|----888888----8----8--8888-------------------------------------------------|
c|---------------------------------------------------------------------------|

2nd guitar plays palm-muted [333xxx] after a while in the background.


Then ´til the rest of the song there´s [333xxx] with whammy, tremolo, phaser or whatever 
you got..) Emergency frequency!



All right, this is like a spine of the song, hopefully (with your help) I´ll add the 
missing parts soon.
comments
We did not receive enough feedback on this tab! Please rate:
print report bad tab
1 2 3 4 5
2 comments total.
0 reply
Sam Rulez D00d wrote on June 19 2012, 06:43 pm

This:
d|-----------------------------------------------------------------------------------------------|
a|--------------------------5h7------------------------------------------------------------------|
f|-------[-3 5h6p5 4 6h7p6-----------------------------------------------]-----------------------|
c|-3333--[------------------------------3333---10 10 10 9 444-0* 0*---33-]-----8 8 8 8 88888/----|
g|-3333--[------------------------------3333---8---8--8-7-222-0*-0*---33-]-----6-6-6-6-66666/----|
c|-3333--[------------------------------3333---8---8--8-7-222-0*-0*---33-]-----6-6-6-6-66666/----|

d|---------------------------------------------------------------------------|
a|-----18--18--18--18--16--16--16--16--15--15--15--15--15--15--15~ ----------|
f|------17--17--17--17--15--15--15--15--15--15--15--15--15--15---------------|
c|---------------------------------------------------------------------------|
g|---------------------------------------------------------------------------|
c|---------------------------------------------------------------------------|

Should be:
d|-------[------------------------------------------------------------]-----------------------|
a|-------[------------------------------------------------------------]-----------------------|
f|-------[---------4h7-----4h7----------------------------------------]-----8-8-8-8-88889-----|
c|-3333--[-3h6-3h6-----3h6----------3h6-3333---10-10-10-9--4-4-----33-]-----8-8-8-8-88888-----|
g|-3333--[------------------------------3333---8---8--8-7--2-2--33-33-]-----6-6-6-6-66666-----|
c|-3333--[------------------------------3333--------------------33-33-]-----------------------|

d|-----13--13--13--13------13------13------13------13------------------------|
a|---------------------16------16------15------15------15--15--15~ ----------|
f|-------17--17--17--17--15--15--15--15--15--15--15--15--15--15--------------|
c|---------------------------------------------------------------------------|
g|---------------------------------------------------------------------------|
c|---------------------------------------------------------------------------|

I figured it out by slowing it down on albeton live
so these corrections should work for ya!

0 reply
Jarda87 wrote on June 20 2012, 06:29 am

Updated! It might be here soon. J

I want to post or [tab]
guest
You may want to rate the tab now too:
select rating
Please do not post tabs as comments. Select "correction" instead!