Oops, an error
Loading. Please wait.

Hello Tyrannosaurus Meet Tyrannicide Tab

version 2
version 2

Whole song

Interactive

22 views 3 this week
no commentswrite comment
1 2 3 4 5
3 more votes to show rating
add to favorites
launch autoscroll
font size
0
reset
how to read this tab
guitar tuner
Autoscroll
slow
fast
+/-
esc
set tempo
stop
Help us to improve Ultimate-Guitar.com Take our survey!
×
Author
Difficulty
Tuning
intermediate
C G C F A D
[Hello Tyrannosaurus, Meet Tyrannicide]
[A Flash Flood Of Colour]
[Enter Shikari]

Tuning: C G C F A D
Playthrough: https://www.youtube.com/watch?v=mqMiRNX9Rk0

[Synth] - [00:00] - [00:43]

[Riff 1] - [00:34] - [00:43]
- -----------------------------------------------------------------
- -----------------------------------------------------------------
- -----------------------------------------------------------------
- -7~--------------------------------------------------------------
- -7~-------------------------------------------------------------- some kind of flange effect?
- -7~--------------------------------------------------------------

[Riff 2] - [00:43] - [01:00] - [x2]
- ---------------------------------------------------------------------------------------
- -----11---11-----11---11-------11---11---------11---11------11---11------------11~-----
- -----14---14-----14---14-------14---14---------14---14------14---14-----------------14-
- ---------------------------------------------------------------------------------------
- -0-0-----------0-----------0~------------13-13-----------13-----------13-13-13---------
- ---------------------------------------------------------------------------------------
PM ...           .           .             .....           ..           ........

- ---------------------------------------------------------------------------------------
- -------------13-------------------13---------------------------------------------------
- -10----10-------10----10----10-------10----10~--10----------12-14~-10----------12------
- ---------------------------------------------------14-12-10-----------14-12-10----14~--
- ----12----12-------12----12----12-------12---------------------------------------------
- ---------------------------------------------------------------------------------------
PM    ..    ..       ..    ..    ..       ..

[Riff 3, Synth] - [01:00] - [01:17] - [x1.75]
- -12-------------12-------13-------------13-------15----------15----------15-------------15-------
- ----13----13-------13-------13----13-------13-------13----13----13----13----13----13-------13----
- -------16----16-------16-------16----16-------16-------16----------16----------16----16-------16-
- -------------------------------------------------------------------------------------------------
- -------------------------------------------------------------------------------------------------
- -------------------------------------------------------------------------------------------------

[Riff 2] - [01:17] - [01:35] - [x2]

[Riff 4] - [01:35] - [01:52]
- ------------------------------------------------------------------
- ------------------------------------------------------------------
- ------------------------------------------------------------------
- -7-----8---/9--8-7-----8---/10-8-7-----8---/9--8-3-3-3-5\1----0~--
- -7-7-7-8-8-/7--8-7-7-7-8-8-/8--8-7-7-7-8-8-/7--8-3-3-3-5\1-1110~--
- -7-7-7-8-8-----8-7-7-7-8-8-----8-7-7-7-8-8-----8-3-3-3-5\1-1110~--
PM   ...   .         ...   .         ...                     ...

- ------------------------------------------------------------------
- ------------------------------------------------------------------
- ------------------------------------------------------------------
- -7-----8---/9--8-7-----8---/10-8-7-----8---/9--8-3-3-3-5\1--------
- -7-7-7-8-8-/7--8-7-7-7-8-8-/8--8-7-7-7-8-8-/7--8-3-3-3-5\1-111000-
- -7-7-7-8-8-----8-7-7-7-8-8-----8-7-7-7-8-8-----8-3-3-3-5\1-111000-
PM   ...   .         ...   .         ...                     ......

[Riff 3, Synth] - [01:52] - [02:27] - [x4]

[Synth] - [02:27] - [02:35]

[Riff 5] - [02:35] - [02:44]
- -----------------------------------------------------------------
- -----------------------------------------------------------------
- -----------------------------------------------------------------
- -------------------------------------------------1/------12\-----
- -7-7-7-7-7-7-7-7-7-7-7-7-7-7-7-7-3-3-3-3-3-3-3-3-1/------12\-----
- -7-7-7-7-7-7-7-7-7-7-7-7-7-7-7-7-3-3-3-3-3-3-3-3-1/------12\-----
PM ...............................................


this is the pattern for the end riff.
i try to space things properly, but 16th notes on the 14th fret played in thirds don't space properly..

- ---/3\--------------/3\---------------/3\--------------/3\------------
- -x-xxxx-x-x-xxxx--x-xxxx-x-xx-------x-xxxx-x-xxxxxxxxx-xxxx-x---------
- -x-xxxx-x-x-xxxx--x-xxxx-x-xx-------x-xxxx-x-xxxxxxxxx-xxxx-x---------
- -x-xxxx-x-x-xxxx--x-xxxx-x-xx-------x-xxxx-x-xxxxxxxxx-xxxx-x---------
- ----------------------------------------------------------------------
- ----------------------------------------------------------------------

heres the notes..


[Riff 6, Guitar 1 & 2] - [02:44] - [03:01] - [x2]
- -----/  3  \----------------------------------------/  3  \--------------------------------
- -11--11-11-11-11----11----11----11-11-11-11-----11--11-11-11-11----11----11-11-------------
- -14--14-14-14-14----14----14----14-14-14-14-----14--14-14-14-14----14----14-14-------------
- -12--12-12-12-12----12----12----12-12-12-12-----12--12-12-12-12----12----12-12-------------
- -13--13-13-13-13----13----13----13-13-13-13-----13--13-13-13-13----13----13-13-------------
- -------------------------------------------------------------------------------------------
PM .........................................................................................
-
- -------------------------------------------------------------------------------------------
- -------------------------------------------------------------------------------------------
- -----/  3  \----------------------------------------/  3  \--------------------------------
- -7---7--7--7--7-----7-----7-----7--7--7--7------7---7--7--7--7-----7-----7--7--------------
- -5---5--5--5--5-----5-----5-----5--5--5--5------5---5--5--5--5-----5-----5--5--------------
- -0---0--0--0--0-----0-----0-----0--0--0--0------0---0--0--0--0-----0-----0--0--------------


- -----/  3  \------------------------------------------/  3  \------------------------------
- -11--11-11-11-11----11----11-11-11-11-11-11-11-11-11--11-11-11-11----11--------------------
- -14--14-14-14-14----14----14-14-14-14-14-14-14-14-14--14-14-14-14----14--------------------
- -12--12-12-12-12----12----12-12-12-12-12-12-12-12-12--12-12-12-12----12--------------------
- -13--13-13-13-13----13----13-13-13-13-13-13-13-13-13--13-13-13-13----13--------------------
- -------------------------------------------------------------------------------------------
PM .........................................................................................
-
- -------------------------------------------------------------------------------------------
- -------------------------------------------------------------------------------------------
- -----/  3  \------------------------------------------/  3  \------------------------------
- -7---7--7--7--7-----7-----7--7--7--7--7--7--7--7--7---7--7--7--7-----7---------------------
- -5---5--5--5--5-----5-----5--5--5--5--5--5--5--5--5---5--5--5--5-----5---------------------
- -0---0--0--0--0-----0-----0--0--0--0--0--0--0--0--0---0--0--0--0-----0---------------------


[Riff 7, Guitar 1 & 2] - [03:01] - [03:18] - [x2]
       /  3  \                                        /  3  \
- -10--10-10-10-10----10----10----10-10-10-10-----10--10-10-10-10----10----10-10-------------
- -14--14-14-14-14----14----14----14-14-14-14-----14--14-14-14-14----14----14-14-------------
- -------------------------------------------------------------------------------------------
- -------------------------------------------------------------------------------------------
- -------------------------------------------------------------------------------------------
- -------------------------------------------------------------------------------------------
-
- -----/  3  \----------------------------------------/  3  \--------------------------------
- -11--11-11-11-11----11----11----11-11-11-11-----11--11-11-11-11----11----11-11-------------
- -14--14-14-14-14----14----14----14-14-14-14-----14--14-14-14-14----14----14-14-------------
- -12--12-12-12-12----12----12----12-12-12-12-----12--12-12-12-12----12----12-12-------------
- -13--13-13-13-13----13----13----13-13-13-13-----13--13-13-13-13----13----13-13-------------
- -------------------------------------------------------------------------------------------


       /  3  \                                          /  3  \
- -10--10-10-10-10----10----10-10-10-10-10-10-10-10-10--10-10-10-10----10--------------------
- -14--14-14-14-14----14----14-14-14-14-14-14-14-14-14--14-14-14-14----14--------------------
- -------------------------------------------------------------------------------------------
- -------------------------------------------------------------------------------------------
- -------------------------------------------------------------------------------------------
- -------------------------------------------------------------------------------------------
-
- -----/  3  \------------------------------------------/  3  \------------------------------
- -11--11-11-11-11----11----11-11-11-11-11-11-11-11-11--11-11-11-11----11--------------------
- -14--14-14-14-14----14----14-14-14-14-14-14-14-14-14--14-14-14-14----14--------------------
- -12--12-12-12-12----12----12-12-12-12-12-12-12-12-12--12-12-12-12----12--------------------
- -13--13-13-13-13----13----13-13-13-13-13-13-13-13-13--13-13-13-13----13--------------------
- -------------------------------------------------------------------------------------------

[Riff 8] - [03:18] - [03:46]
- -----------------------------------------------------------------
- -----------------------------------------------------------------
- -----------------------------------------------------------------
- -----------------------------------------------------------------
- -7b~-------------------------------------------------------------
- -8b~-------------------------------------------------------------
Suggest correction
Give kudos to tab author, rate the tab!
1 2 3 4 5
comments
print report bad tab
guest
You may want to rate the tab now too:
select rating
Wanna post a correction for this tab? Suggest correction