Oops, an error
Loading. Please wait.

Hoodwinker Tab

version 1
version 1

Whole song

  • Music video, not album version.

Interactive

499 views 39 this week
no commentswrite comment
1 2 3 4 5
x 5
add to favorites
launch autoscroll
font size
0
reset
how to read this tab
guitar tuner
Autoscroll
slow
fast
+/-
esc
set tempo
stop
Help us to improve Ultimate-Guitar.com Take our survey!
×
Author
Difficulty
Tuning
intermediate
C G C F A D
About this tab version
Music video, not album version. Was this info helpful? Yes No
[Hoodwinker]
[Music Video Version]
[Enter Shikari]

Tuning: C G C F A D
Playthrough : https://www.youtube.com/watch?v=IdVTXxRUFYE

[Riff 1] - [00:28] - [00:48]
- -----------------------------------------------------------------
- -----------------------------------------------------------------
- -----------------------------------------------------------------
- -----------------------------------------------------------------
- -5---5-4---7---6-6~------------6-5---5-4---7---6-6~------------6-
- -5---5-4---7---6-6~------------6-5---5-4---7---6-6~------------6-
PM ...............................................................

- -------------------------------------------------
- -------------------------------------------------
- -------------------------------------------------
- -------------------------------------------------
- -5---5-4---7---6-6~------------6-5---5-4---7---6-
- -5---5-4---7---6-6~------------6-5---5-4---7---6-
PM ...............................................

[Riff 2] - [00:48] - [00:56]
- -------------------------------------------------
- ---4~------4~------4~--------------4~------4~----
- -----7~------7~------7~--------------7~------7~--
- -------------------------------------------------
- ---------6~----6-5~----------------------6~----6-
- -6~----6---------0~--------------6~----6---------

[Riff 3] - [00:56] - [01:02]
- -----------------------------------------------------------------
- -----------------------------------------------------------------
- -7-----------------7-----7-7---7---7-----------------------------
- -7-------0---------7-----7-7---7---7-----0-------\\\-------------
- -5---0-0-0---0-0-0-5-0-0-5-5-0-5-0-5-0-0-0---0-0-\\\-------------
- -----0-0-0---0-0-0---0-0-----0---0---0-0-0---0-0-\\\-------------
PM     ...     .....   ...     .   .   ...     ...

[Riff 4] - [01:02] - [01:24]
- -------------------------------------------------------------------------------
- -4-4-4-4-4-4-4-4-4-4-4-4-4-4-4-4-----------------------------------------------
- -7-7-7-7-7-7-7-7-7-7-7-7-7-7-7-7-----------------------------------------------
- -0-0-0-0-0-0-0-0-5-5-5-5-5-5-5-5-12-12-12-12-12-12-12-12-12-12-12-12-12-12-7-7-
- -0-0-0-0-0-0-0-0-5-5-5-5-5-5-5-5-8--8--8--8--8--8--8--8--8--8--8--8--8--8--7-7-
- -0-0-0-0-0-0-0-0-5-5-5-5-5-5-5-5-8--8--8--8--8--8--8--8--8--8--8--8--8--8--7-7-

- -------------------------------------------------------------------------------
- -4-4-4-4-4-4-4-4-4-4-4-4-4-4-4-4-----------------------------------------------
- -7-7-7-7-7-7-7-7-7-7-7-7-7-7-7-7-----------------------------------------------
- -0-0-0-0-0-0-0-0-5-5-5-5-5-5-5-5-12-12-12-12-12-12-12-12-12-12-12-12-12-12-7-7-
- -0-0-0-0-0-0-0-0-5-5-5-5-5-5-5-5-8--8--8--8--8--8--8--8--8--8--8--8--8--8--7-7-
- -0-0-0-0-0-0-0-0-5-5-5-5-5-5-5-5-8--8--8--8--8--8--8--8--8--8--8--8--8--8--7-7-

- -------------------------------------------------------------------------------
- -4-4-4-4-4-4-4-4-4-4-4-4-4-4-4-4-----------------------------------------------
- -7-7-7-7-7-7-7-7-7-7-7-7-7-7-7-7-----------------------------------------------
- -0-0-0-0-0-0-0-0-5-5-5-5-5-5-5-5-12-12-12-12-12-12-12-12-12-12-12-12-12-12-7-7-
- -0-0-0-0-0-0-0-0-5-5-5-5-5-5-5-5-8--8--8--8--8--8--8--8--8--8--8--8--8--8--7-7-
- -0-0-0-0-0-0-0-0-5-5-5-5-5-5-5-5-8--8--8--8--8--8--8--8--8--8--8--8--8--8--7-7-

- -------------------------------------------------------------------------------
- -4-4-4-4-4-4-4-4-4-4-4-4-4-4-4-4-----------------------------------------------
- -7-7-7-7-7-7-7-7-7-7-7-7-7-7-7-7-----------------------------------------------
- -0-0-0-0-0-0-0-0-5-5-5-5-5-5-5-5-12-12-12-12-12-12-12-12-12-12-12-12-1/--------
- -0-0-0-0-0-0-0-0-5-5-5-5-5-5-5-5-8--8--8--8--8--8--8--8--8--8--8--8--1/--------
- -0-0-0-0-0-0-0-0-5-5-5-5-5-5-5-5-8--8--8--8--8--8--8--8--8--8--8--8--1/--------

[Riff 5] - [01:24] - [01:44]
- ----------------------------------------------------------------------------------------
- -16-16-16-15---15----13---13---11---11-11/13-13---13---13-13-13-13---13-13-13---13-13---
- -x--x--x--x----x-----x----x----x----x--x--x--x----x----x--x--x--x----x--x--x----x--x----
- -13-13-13-12---12----10---10---9----9--9-/10-10---10---10-10-10-10---10-10-10---10-10---
- ----------------------------------------------------------------------------------------
- ----------------------------------------------------------------------------------------

- ----------------------------------------------------------------------------------------
- -16-16-16-15---15----13---13---11---11-11/13-13---13---13-13-13-13---13-13-13---13-13---
- -x--x--x--x----x-----x----x----x----x--x--x--x----x----x--x--x--x----x--x--x----x--x----
- -13-13-13-12---12----10---10---9----9--9-/10-10---10---10-10-10-10---10-10-10---10-10---
- ----------------------------------------------------------------------------------------
- ----------------------------------------------------------------------------------------

- ----------------------------------------------------------------------------------------
- -16-16-16-15---15----13---13---11---11-11/13-13---13---13-13-13-13---13-13-13---13-13---
- -x--x--x--x----x-----x----x----x----x--x--x--x----x----x--x--x--x----x--x--x----x--x----
- -13-13-13-12---12----10---10---9----9--9-/10-10---10---10-10-10-10---10-10-10---10-10---
- ----------------------------------------------------------------------------------------
- ----------------------------------------------------------------------------------------

- ---------------------------------------------
- -16-16-16-15---15----13---13---11---11-------
- -x--x--x--x----x-----x----x----x----x--------
- -13-13-13-12---12----10---10---9----9--------
- ---------------------------------------------
- ---------------------------------------------

[Riff 6a] - [01:44] - [01:49]
- ---------------------------------
- ---------------------------------
- ---------------------------------
- -5---5-4---7---6-6-----------12--
- -5---5-4---7---6-6-----------12--
- -5---5-4---7---6-6-----------12--


[Riff 6b, Guitar 1 & 2] - 01:44] - [01:49]
- ---------------------------------------------
- ---------------------------------------------
- -12v--12v-11v--14v--13v-13brbrv--------------
- ---------------------------------------------
- ---------------------------------------------
- ---------------------------------------------
-
- ---------------------------------------------
- ---------------------------------------------
- ---------------------------------------------
- -5v---5v--4v---7v---6v--6brbrv---------------
- ---------------------------------------------
- ---------------------------------------------


[Riff 7] - [01:49] - [02:06]
- -------------------------------------------------------------------------------------------------
- -------------------------------------------------------------------------------------------------
- -------------------------------------------------------------------------------------------------
- -------------------------------------------------------------------------------------------------
- -5---5-4---7---6-6~------------6-5---5-4---7---6-6~------------6-5---5-4---7---6-6~--------------
- -5---5-4---7---6-6~------------6-5---5-4---7---6-6~------------6-5---5-4---7---6-6~--------------
PM ...............................................................................................

[Riff 8] - [02:06] - [02:17] - [Clean]
- -11------10~------------------------------------11------10~--------------------------------------
- ----------------13------11~------------------------------------13------11~-----------------------
- ----10~------------10~---------10~-----------------10~------------10~---------10~----------------
- -------------------------------12~--------------------------------------------12~----------------
- -------------------------------------------------------------------------------------------------
- -------------------------------------------------------------------------------------------------

[Riff 5] - [02:06] - [02:37]
[Riff 2] - [02:37] - [02:45]

[Riff 9] - [02:45] - [02:56]
- -----------------------------------------------------------------
- -----------------------------------------------------------------
- -7-----------------7-----7-7---7---7---------------7-----7-7-----
- -7-------0---------7-----7-7---7---7-----0---------7-----7-7-----
- -5---0-0-0---0-0-0-5-0-0-5-5-0-5-0-5-0-0-0---0-0-0-5-0-0-5-5-0-0-
- -----0-0-0---0-0-0---0-0-----0---0---0-0-0---0-0-0---0-0-----0-0-
PM     ...     .....   ...     .   .   ...     ...     ...     ...

- -----------------------------------------------------------------
- -----------------------------------------------------------------
- -7-----------------7-----7-7---7---7-----------------------------
- -7-------0---------7-----7-7---7---7-----0-------\\\-------------
- -5---0-0-0---0-0-0-5-0-0-5-5-0-5-0-5-0-0-0---0-0-\\\-------------
- -----0-0-0---0-0-0---0-0-----0---0---0-0-0---0-0-\\\-------------
PM     ...     .....   ...     .   .   ...     ...

[Riff 10] - [02:56] - [03:18]
- ------------------------------------------------------------------
- -----4---4-----4-----4---4-----4----------------------------------
- -----7---7-----7-----7---7-----7----------------------------8-----
- -------------------------------------12---12-----12-------7---6b--
- -0-0---0---0-0---5-5---5---5-5---8-8-8--8-8--8-8-8--8-0-6---------
- -0-0---0---0-0---5-5---5---5-5---8-8----8----8-8----8-------------
PM ...   .   ...   ...   .   ...   ...    .    ...    ...

- ------------------------------------------------------------------
- -----4---4-----4-----4---4-----4----------------------------------
- -----7---7-----7-----7---7-----7----------------------------------
- -------------------------------------12---12-----12---------------
- -0-0---0---0-0---5-5---5---5-5---8-8-8--8-8--8-8-8--8-------0-----
- -0-0---0---0-0---5-5---5---5-5---8-8----8----8-8----8-8-7h8---1b--
PM ...   .   ...   ...   .   ...   ...    .    ...    ...

- ------------------------------------------------------------------
- -----4---4-----4-----4---4-----4----------------------------------
- -----7---7-----7-----7---7-----7----------------------------8-----
- -------------------------------------12---12-----12-------7---6b--
- -0-0---0---0-0---5-5---5---5-5---8-8-8--8-8--8-8-8--8-0-6---------
- -0-0---0---0-0---5-5---5---5-5---8-8----8----8-8----8-------------
PM ...   .   ...   ...   .   ...   ...    .    ...    ...

- ------------------------------------------------------------------
- -----4---4-----4-----4---4-----4----------------------------------
- -----7---7-----7-----7---7-----7----------------------------------
- -------------------------------------12---12-----12-1\------------
- -0-0---0---0-0---5-5---5---5-5---8-8-8--8-8--8-8-8--1\------------
- -0-0---0---0-0---5-5---5---5-5---8-8----8----8-8----1\------------
PM ...   .   ...   ...   .   ...   ...    .    ...

[Riff 5] - [03:18] - [03:38]

[Riff 11] - [03:38] - [04:03]
- -------------------------------------------------
- ---4~------4~------------------------------------
- -----7~------7~----------------------------------
- -------------------------------------------------
- ---------6~----6-5~------------------------------
- -6~----6---------0~------------------------------

[Symbols]

PM... Palm Mute notes with (...) under them
AP... Alternate Pick notes with (...) under them
h     Hammer On
p     Pull Off
[ ]   Harmonic
/     Slide Up
\     Slide Down
x     Dead Note
b     Bend
pb    Pre-Bend
v     Vibrato
r     Release Bend
(x )  Play Notes x amount of times
~     Let Note Ring
/ 3 \ Notes are triplets (3 notes in the space of two)
w\    Whammy Bar Down
w/    Whammy Bar Up
T     Right Hand Tap
\\\   Pickslide Down

:)
Suggest correction
comments
print report bad tab
guest
You may want to rate the tab now too:
select rating
Wanna post a correction for this tab? Suggest correction