Oops, an error
Loading. Please wait.

Jester Tab

version 1
version 1

Whole song

3,316 views 1 this week
6 commentsread comments
1 2 3 4 5
please rate
add to favorites
launch autoscroll
font size
0
reset
how to read this tab
guitar tuner
Autoscroll
slow
fast
+/-
esc
set tempo
stop
Help us to improve Ultimate-Guitar.com Take our survey!
×
Author
Difficulty
Tuning
novice
C G C F A D
I'm a bassist so cant really tab / play proper guitar haha
OK, so this is a very basic tab, probably very wrong. 
Just putting it up cos 
there isnt a tab for this song yet.
If someone wants to use it to make it better or improve it feel free


Drop C tuning

Intro: Haven't got a clue, do some bends on top 2 strings i guess
... around frets 16-20

"Ahhhhhhhhhhhhhhhhhhh......"

----------------------------------------|
----------------------------------------|
----------------------1313--------------|
-12-/-1010--12-/-1010-1313--------------|
-12-/-1010--12-/-1010-1313--------------|   x 2
-12-/-1010--12-/-1010-1313--------------|


Verse:

------------------------------------------------------------|
------------------------------------------------------------|
------------------------------------------------------------|    repeat
-1212121212-1212121212-13-13--1212121212-1212121212--8-13---|     until
-1212121212-1212121212-13-13--1212121212-1212121212--8-13---| breakdown
-1212121212-1212121212-13-13--1212121212-1212121212--8-13---|  

Breakdown

"........ hold...."

-----------------------|
-----------------------|
-----------------------|
-1/-22-----------------|                         -22-
-1/-22-----------------|    or just keep playing -22-
-1/-22-----------------|                         -22-

---------------------------------------------------       ________
---------------------------------------------------               |
---------------------------------------------------               |
-121212-121212-1212-13131313-121212-1212-8-8-14-14-               |
-121212-121212-1212-13131313-121212-1212-8-8-14-14-               |
-121212-121212-1212-13131313-121212-1212-8-8-14-14-               |
                                                                  |
                                                                  | x2
----------------------------------------------------              |
----------------------------------------------------              |
----------------------------------------------------              |
-121212-121212-1212-13131313-121212-1212--14-8-14-13              |
-121212-121212-1212-13131313-121212-1212--14-8-14-13              |
-121212-121212-1212-13131313-121212-1212--14-8-14-13      ________|

Breakdown part 2

Throw in some palm mutes to make it sound better

can't really hear it, so optional to play after the 12's

---------------------------------------------------|
---------------------------------------------------|
---------------------------------------------------|
-12-12-12-12-12-12-12-12-12-12-12-12--1212-1313----|
-12-12-12-12-12-12-12-12-12-12-12-12--1212-1313----|
-12-12-12-12-12-12-12-12-12-12-12-12--1212-1313----|
 .     .     .     .     .     .

                                                          x2
---------------------------------------------------|
---------------------------------------------------|
---------------------------------------------------|
-12-12-12-12-12-12-12-12-12-12-12-12--15-8-15-14---|
-12-12-12-12-12-12-12-12-12-12-12-12--15-8-15-14---|
-12-12-12-12-12-12-12-12-12-12-12-12--15-8-15-14---|    
 .     .     .     .     .     .     
 
END


All comments and correctoons very welcome as its a pretty bad tab

but thanks for looking anyways :)
Suggest correction
What's this?
You can suggest a correction to this tab. Community and Mods will review your correction and vote to approve or reject it.
comments
We did not receive enough feedback on this tab! Please rate:
print report bad tab
1 2 3 4 5
6 comments total. Showing first comments.
0 reply
HibbyCal 119 wrote on July 20 2009, 03:49 pm

Don't know it all but the intro(and it's mostly just the intro repeated) I think is:

|-------------------------------|
|-------------------------------|
|--7-7-7-5-7----7-7-7-5-7--8-8--|
|--x-x-x-x-x----x-x-x-x-x--x-x--|
|--5-5-5-3-5----5-5-5-3-5--6-6--|
|-------------------------------|

|-------------------------------|
|-------------------------------|
|--7-7-7-5-7----7-7-7-5-7--3-3--|
|--x-x-x-x-x----x-x-x-x-x--x-x--|
|--5-5-5-3-5----5-5-5-3-5--1-1--|
|-------------------------------|

0 reply
shikari_18 53 wrote on July 21 2009, 05:10 am

There isn't guitar in the intro apart from the few bends, it's just bass i'll post them in my own tab when its finished

0 reply
brechteke 113 wrote on July 21 2009, 07:16 am

I think Rory uses a Digitech Whammy set on the "3rd up" option. Saw him playing this song with a Whammy in on of the videos on the Isle of Wight.

guest
You may want to rate the tab now too:
select rating
Please do not post tabs as comments. Select "correction" instead!