Oops, an error
Loading. Please wait.

Jester Bass Tab

version 2
version 2

Whole song

1,775 views 6 this week
no commentswrite comment
1 2 3 4 5
1 last vote to show rating
add to favorites
launch autoscroll
font size
0
reset
guitar tuner
Autoscroll
slow
fast
+/-
esc
set tempo
stop
Help us to improve Ultimate-Guitar.com Take our survey!
×
Difficulty
Tuning
novice
C G C F A D
This tab was tabbed very roughly by the last person, hopefully this tab will give 
you all of it, almost certain it's correct :)
Youtube video will be up on njhopkins1992 youtube channel soon when I've got it mastered :)
Basically it goes like this:

INTRO (from beginning)
F:--------------------------------------------\
C:-------------------------------------------- \
G:----5-3-5---55-3-5-66--5-3-5-55-3-5---------  \
C:-00---------------------------------0h7~----   \  
                                                  > X6
F:--------------------------------------------   /
C:--------------------------------------------  /
G:----5-3-5---55-3-5-66--5-3-5---------------- / 
C:-00--------------------------0h7-5-3----0---/

Break then

VERSE ("Well this is)
F:--------------------------------------\
C:----------------------------1--------- \
G:-5-3-5---55-3-5-66--55-3-5-1---------- / X8
C:--------------------------------------/

SYNTH ON OWN FOR 2 REPS BREAK THEN EITHER
F:-------------------------------------\
C:------------------------------------- \
G:-555555555555555555555555------------ / With Synth til end of synth
C:-------------------------------------/

OR COPY THE SYNTH (KINDA)
F:---------------------------------------------------\
C:-------------------------------------------7---6--- \
G:-55553h55553h5555-1-5/12~-55553h55553h5555--------- / again with synth
C:---------------------------------------------7---5-/

Then just repeat the intro until the end 


SORTED :)
Suggest correction
Give kudos to tab author, rate the tab!
1 2 3 4 5
comments
print report bad tab
guest
You may want to rate the tab now too:
select rating
Wanna post a correction for this tab? Suggest correction