Oops, an error
Loading. Please wait.

Jonny Sniper Tab

version 1
version 1

Whole song

Interactive

15,213 views 3 this week
1 commentread comment
1 2 3 4 5
accurate
x 4
add to favorites
launch autoscroll
font size
0
reset
how to read this tab
guitar tuner
Autoscroll
slow
fast
+/-
esc
set tempo
stop
Help us to improve Ultimate-Guitar.com Take our survey!
×
Author
Tuning
C# G# C# F# A# D#
Great song that i heard ages ago (but this is the new version)
easy to play :)
tuning: drop D flat.

intro:

Eb|--------------------------------------------|
Bb|--------------------------------------------|
Gb|-4-4-4---6-6-6---8-8-8---9-9-9--------------|
Db|-x-x-x---x-x-x---x-x-x---x-x-x--------------|
Ab|-2-2-2---4-4-4---6-6-6---7-7-7--------------|
Db|--------------------------------------------|
      .       .       .       .

Eb|--------------------------------------------|
Bb|--------------------------------------------|
Gb|--------------------------------------------|
Db|-444444444-44--6-6-6---8-8-8---9-9-9--------|
Ab|-xxxxxxxxx-xx--x-x-x---x-x-x---x-x-x--------|
Db|-222222222-22--4-4-4---6-6-6---7-7-7--------|
    .........      .       .       .

just keyboard

verse:
tap (left hand for the 7s, right hand for the rest)
Eb|--------------------------------------------|
Bb|-0-7-16-0-14-0-7-14-0-7-14-0-12-0-7-12------|
Gb|--------------------------------------------|
Db|--------------------------------------------| X8
Ab|--------------------------------------------|
Db|--------------------------------------------|

chorus:

Eb|--------------------------------------------|
Bb|--------------------------------------------|
Gb|------4-4-------3-3-------3-3---------------|
Db|-2-2--4-4--4-4--4-4--4-4--4-4---------------|
Ab|-2-2-------4-4-------4-4--------------------|
Db|-2-2-------4-4-------4-4--------------------|
    . .       . .
                                                all X2

Eb|--------------------------------------------|
Bb|--------------------------------------------|
Gb|------4-4-------3-3-------3-3---------------|
Db|-6-6--4-4--4-4--4-4--4-4--4-4---------------|
Ab|-6-6-------4-4-------4-4--------------------|
Db|-6-6-------4-4-------4-4--------------------|
    . .       . .

intro

Verse


Eb|--------------------------------------------|
Bb|--------------------------------------------|
Gb|-4-4-4---6-6-6---8-8-8---9-9-9--------------|
Db|-x-x-x---x-x-x---x-x-x---x-x-x--------------| X1
Ab|-2-2-2---4-4-4---6-6-6---7-7-7--------------|
Db|--------------------------------------------|
      .       .       .       .


Eb|--------------------------------------------|
Bb|--------------------------------------------|
Gb|--------------------------------------------|
Db|-444444444-44--6-6-6---8-8-8---9-9-9--------| X3
Ab|-xxxxxxxxx-xx--x-x-x---x-x-x---x-x-x--------|
Db|-222222222-22--4-4-4---6-6-6---7-7-7--------|
    .........       .       .       .

Chorus X4

outro:

Eb|--------------------------------------------|
Bb|--------------------------------------------|
Gb|--------------------------------------------|
Db|-9-9-9---6-6--(6)--2h4-2h4------------------| X6
Ab|-9-9-9---6-6--(6)--2h4-2h4------------------|
Db|-9-9-9---6-6--(6)--2h4-2h4------------------|

a . below the tab means palm mute.
Suggest correction
What's this?
You can suggest a correction to this tab. Community and Mods will review your correction and vote to approve or reject it.
comments
print report bad tab
1 comment total.
0 reply
jakrooster 110 wrote on May 26 2010, 01:13 pm

your whole tab is a half step down

guest
You may want to rate the tab now too:
select rating
Please do not post tabs as comments. Select "correction" instead!