Oops, an error
Loading. Please wait.

Jonny Sniper Bass Tab

version 3
version 3

Whole song

Interactive

1,458 views 1 this week
no commentswrite comment
1 2 3 4 5
3 more votes to show rating
add to favorites
launch autoscroll
font size
0
reset
guitar tuner
Autoscroll
slow
fast
+/-
esc
set tempo
stop
Help us to improve Ultimate-Guitar.com Take our survey!
×
Author
Difficulty
novice
Here's my version of the tab for Jonny Sniper. Hope you enjoy. :) You'll have to work 
the rhythm from the song


F#|--------|--------|
C#|--------|--------|
G#|3-------|--------|
C#|--------|--------|
"Ok Jonny, let's go"

CHORUS
(X = damped/muted noted)

F#|--------|--------|--------|--------|------------|--------|--------|--------|--------|
C#|--------|--------|--------|--------|------------|--------|--------|--------|--------|
G#|3---X3--|3---X3--|3---X3--|3---X3--|333333----3-|3---X3--|3---X3--|3---X3--|3-------|
C#|--------|--------|--------|--------|------------|--------|--------|--------|--------|
"Rise, taste the air...."

VERSE

F#|--------|--------|--------|--------|
C#|--------|--------|--------|--------|
G#|--------|--------|--------|--------|
C#|--------|--------|--------|--------|
  "A whisper from the wind, and i can't help but listen"


F#|--------|-9-10-9--7-5-4|--------|-9-10-9--7-5--|----------|---------7-9---|----------|---------9-7---|
C#|--------|--------------|--------|--------------|----------|---10--------10|----------|---10----------|
G#|-3-3\---|--------------|-3-3\---|--------------|-8-8\-----|-8----8--------|-8-8\-----|-8----8--------|
C#|--------|--------------|--------|--------------|----------|---------------|----------|---------------|

F#|--------|-9-10-9--7-5-4|--------|-9h10h9--7-5--|----------|---------7-9---|----------|---------9-7---|
C#|--------|--------------|--------|--------------|----------|---10--------10|----------|---10----------|
G#|-3-3\---|--------------|-3-3\---|--------------|-8-8\-----|-8----8--------|-8-8\-----|-8----8--------|
C#|--------|--------------|--------|--------------|----------|---------------|----------|---------------|

PRE-CHORUS

F#|--------|--------|--------|--------|
C#|--------|--------|--------|--------|
G#|--------|--------|-0-0----|--------|
C#|-3-3----|-5-5-555|--------|-5-5-555| x 2


CHORUS

F#|--------|--------|--------|--------|------------|--------|--------|--------|--------|
C#|--------|--------|--------|--------|------------|--------|--------|--------|--------|
G#|3---X3--|3---X3--|3---X3--|3---X3--|333333----3-|3---X3--|3---X3--|3---X3--|3-------|
C#|--------|--------|--------|--------|------------|--------|--------|--------|--------|

VERSE


F#|--------|-9-10-9--7-5-4|--------|-9-10-9--7-5--|----------|---------7-9---|----------|---------9-7---|
C#|--------|--------------|--------|--------------|----------|---10--------10|----------|---10----------|
G#|-3-3\---|--------------|-3-3\---|--------------|-8-8\-----|-8----8--------|-8-8\-----|-8----8--------|
C#|--------|--------------|--------|--------------|----------|---------------|----------|---------------|

F#|--------|-9-10-9--7-5-4|--------|-9h10h9--7-5--|----------|---------7-9---|----------|---------9-7---|
C#|--------|--------------|--------|--------------|----------|---10--------10|----------|---10----------|
G#|-3-3\---|--------------|-3-3\---|--------------|-8-8\-----|-8----8--------|-8-8\-----|-8----8--------|
C#|--------|--------------|--------|--------------|----------|---------------|----------|---------------|

PRE-CHORUS

F#|--------|--------|--------|--------|
C#|--------|--------|--------|--------|
G#|--------|--------|-0-0----|--------|
C#|-3-3----|-5-5-555|--------|-5-5-555| x 2


CHORUS

F#|--------|--------|--------|--------|------------|--------|--------|--------|
C#|--------|--------|--------|--------|------------|--------|--------|--------|
G#|3---X3--|--------|--------|--------|333333---3--|--------|--------|--------|
C#|--------|0---X0--|2---X2--|3---X3--|------------|0---X0--|2---X2--|3---X3--|

BRIDGE

F#|------------|--------|--------|--------|
C#|------------|--------|--------|--------|
G#|333333---33-|--------|--------|--------|
C#|------------|0---X0--|2---X2--|3---X3--| x 2
"Way to save the world"


PRE-CHORUS

F#|--------|--------|--------|--------|
C#|--------|--------|--------|--------|
G#|--------|--------|-0-0----|--------|
C#|-3-3----|-5-5-555|--------|-5-5-555| x 4


OUTRO

F#|--------|---------|
C#|--------|---------|
G#|3-3--33-|0-0--0---|
C#|--------|------3-3|  Repeat until song fades out.
Suggest correction
Give kudos to tab author, rate the tab!
1 2 3 4 5
comments
print report bad tab
guest
You may want to rate the tab now too:
select rating
Wanna post a correction for this tab? Suggest correction