Oops, an error
Loading. Please wait.

Jonny Sniper Bass Tab

version 4
version 4

Whole song

Interactive

1,973 views 1 this week
6 commentsread comments
1 2 3 4 5
please rate
add to favorites
launch autoscroll
font size
0
reset
guitar tuner
Autoscroll
slow
fast
+/-
esc
set tempo
stop
Help us to improve Ultimate-Guitar.com Take our survey!
×
Author
Difficulty
novice
Right, this is my first tab I've ever done for a whole song.
I looked at the other tabs on here and they just seemed quite
a bit wrong.
But I will admit I'm not 100% about this, although it seems right.
Any queries or corrections are welcome :)

This tab is for the original "Jonny Sniper" (The one without screamo at the beginning)

This song is in standard e tuning. Although I think it could be played in the same 
tuning as guitar.


Legend -

~ slide down the neck
/ slide to another fret



This should be quite easy for anyone to put together!
Good Luck!



Intro -

G-----------------|
D-----------------|
A-----------------|   (x4)
E-7-7-7-7-7-7-7-7-|


G-----------------------------------------------|
D-----------------------------------------------|
A-----------------------------------------------|
E-7--7-7--7-7--7-7--7-77777777-7-7--7-7--7-7--7-|



Verse - (x2)

G-----------------------------|
D-----------13-14-13----------|
A-------------------16-14-13~-|
E-11~-7-7~--------------------|

G-------------------|
D------13-14-13-----|
A---------------16~-|
E-7-7~--------------|

G-------------6-8--|
D------------------|
A-7-7~--6-7-6------|
E------------------|

G-------------6/8-6-|
D-------------------|
A-7-7~--6-7-6-------|
E-------------------|



Chorus -

G--------------------------|
D--------------------------|
A--------------------------|
E-00--22--22-44--44--22-00-|

G-------------------------|
D-------------------------|
A-------------------------|
E-22--22-44--44--22-------|

G-----------------------------------------------|
D-----------------------------------------------|
A-----------------------------------------------|
E-7--7-7--7-7--7-7--7-77777777-7-7--7-7--7-7--7-|



Verse 2 -

G----------------------------|
D-------13-14-13-------------|
A----------------16-14-13~---|
E-7-7~-----------------------|

G-------------------|
D------13-14-13-----|
A---------------16~-|
E-7-7~--------------|

G-------------6-8--|
D------------------|
A-7-7~--6-7-6------|
E------------------|

G-------------6/8-6-|
D-------------------|
A-7-7~--6-7-6-------|
E-------------------|


Chorus 2 -

G--------------------------|
D--------------------------|
A--------------------------|
E-00--22--22-44--44--22-00-|

G-------------------------|
D-------------------------|
A-------------------------|
E-22--22-44--44--22-------|

G-----------------------------------------------|
D-----------------------------------------------|
A-----------------------------------------------|
E-7--7-7--7-7--7-7--7-77777777-7-7--7-7--7-7--7-|

G--------------------------|
D--------------------------|
A--------------------------|
E-00--22--22-44--44--22-00-|

G-------------------------|
D-------------------------|
A-------------------------|
E-22--22-44--44--22-------|



Outro -

G-----------------|
D-----------------|
A-----------------|
E-7-7-7--4-4-40-0-|
Suggest correction
Give kudos to tab author, rate the tab!
1 2 3 4 5
comments
print report bad tab
6 comments total. Showing first comments.
0 reply
robotfrom94 304 wrote on December 26 2012, 07:47 am

In the verse, every time the note is rang (usually the 7th fret E and A) Chris slides down, not sure where too, but he does. No one seems to have this in their tabs though

0 reply
zaoXTreme 116 wrote on April 18 2014, 03:05 pm

I can't tell if he does right now. I know the comment was 2 years ago, but I'll try to fix this. Haha.

0 reply
robotfrom94 304 wrote on April 18 2014, 03:15 pm

Ah no worries; it's fine. Just a heads up :)

guest
You may want to rate the tab now too:
select rating
Please do not post tabs as comments. Select "correction" instead!