Oops, an error
Loading. Please wait.

Jonny Sniper Bass Tab

version 5
version 5

Whole song

Interactive

192 views 1 this week
no commentswrite comment
1 2 3 4 5
please rate
add to favorites
launch autoscroll
font size
0
reset
guitar tuner
Autoscroll
slow
fast
+/-
esc
set tempo
stop
Help us to improve Ultimate-Guitar.com Take our survey!
×
Author
Hi, I've done this by ear from playing along to the instrumental. I'm 99% sure 
it's correct. Enjoy :)

Tuning = C# standard
Intro/Verse Intro
G|---------------------------------------------------------------|
D|---------------------------------------------------------------| X2 
A|---------------------------------------------------------------|
E|10-10-10-10-10-10-10-10-10-10-10-10-10-10-10-10----------------|

G|---------------------------------------------------------------|
D|---------------------------------------------------------------|
A|---------------------------------------------------------------|
E|10-10-10-10-10-10-10-10-101010101010-10-10-10-10-10-10---------|

Verse
G|------------11-12-11-------------------------11-12-11----------|
D|---------------------14-12-11-12----------------------14\------|
A|---------------------------------------------------------------|
E|10-10-10\---------------------------10-10\---------------------|
                                                                X2
G|-------------------9-11-------------------------------11-9-----|
D|---------------------------------------------------------------|
A|10-10\----9-10-9---------------------10-10\----9-10-9----------|
E|---------------------------------------------------------------|

Chorus
G|---------------------------------------------------------------|
D|---------------------------------------------------------------|      PART 1
A|---------------------------------7-/-9-------------------------|
E|3-3---5-5---5-5---7-7---5-5------------------------------------|

G|---------------------------------------------------------------|
D|---------------------------------------------------------------|      PART2
A|---------------------------------------------------------------|
E|3-3-3-3-3-3-3-3-5-5-5-5-5-5-5-5-7-7-7-7-7-7-7-7-5-5-5-5-5-5-5-5|

After Chorus

G|---------------------------------------------------------------|
D|---------------------------------------------------------------| PART 1
A|---------------------------------------------------------------|
E|10-10-\-0-0-2-2-3-3-/-101010101010-0-0-2-2-3-3-----------------|

G|---------------------|-----------------------------------------|
D|---------------------|-----------------------------------------| PART 2
A|---------------------|-----------------------------------------|
E|101010101010-0-0-2-2-3-3---------------------------------------|


Outro
G|---------------------------------------------------------------|
D|---------------------------------------------------------------| X4
A|---5-5-55---2-2-2----------------------------------------------|
E|--------------------3-3----------------------------------------|

INTRO   
VERSE
CHORUS
VERSE INTRO
VERSE
CHORUS
AFTER CHORUS
AFTER CHORUS PART 2 X3
CHORUS
CHORUS PART 1 X2
OUTRO
Suggest correction
Give kudos to tab author, rate the tab!
1 2 3 4 5
comments
print report bad tab
guest
You may want to rate the tab now too:
select rating
Wanna post a correction for this tab? Suggest correction