Oops, an error
Loading. Please wait.

Juggernauts Tab

version 1
version 1

Whole song

Interactive

21,965 views 1 this week
2 commentsread comments
1 2 3 4 5
1 last vote to show rating
add to favorites
launch autoscroll
font size
0
reset
how to read this tab
guitar tuner
Autoscroll
slow
fast
+/-
esc
set tempo
stop
Help us to improve Ultimate-Guitar.com Take our survey!
×
-------------------------------------------------------------------------------
                      JUGGERNAUTS - Enter Shikari
-------------------------------------------------------------------------------

This is only my second tab, and it was done by ear. It's accurate enough for me,
 and my band'll be covering it at some point, comment and rate,
if you have any questions or comments I'm happy to answer: pawnritchie@hotmail.co.uk :D

Tuning: Drop C / CGCGFD.
Although putting everything two frets down, you could play this in Standard EADGBe.

Play this part with all tapping on the high notes and pulling off to the root notes.

[INTRO/TAPPING BIT]  (x2)
D|---------------------------------------------------------------------------|
A|---------------------------------------------------------------------------|
F|12-5-12-5-11-5-12-5-11-5-12-5-16-5--12-2-12-2-11-2-12-2-11-4-12-4-16-4-12-4|
C|---------------------------------------------------------------------------|
G|---------------------------------------------------------------------------|
C|---------------------------------------------------------------------------|

[CHORUS (pt I)] (x2)
D|--------------------------------------------------------------------------|
A|--------------------------------------------------------------------------|
F|--5-5-5--5-5-5-5-5-5--5-5-5/7-7-7--7-7-7/-9-9-9--9-9----------------------|
C|--------------------------------------------------------------------------|
G|--3-3-3--3-3-3-3-3-3--3-3-3/5-5-5--5-5-5/ 7-7-7--7-7----------------------|
C|--------------------------------------------------------------------------|

D|--------------------------------------------------------------------------|
A|--------------------------------------------------------------------------|
F|--4/5-5-5-5-5-5-5-5-5--5-5-5/9-9-9--9-9-9\7-7-7--7-7/9--------------------|
C|--------------------------------------------------------------------------|
G|--2/3-3-3-3-3-3-3-3-3--3-3-3/7-7-7--7-7-7\5-5-5--5-5/7--------------------|
C|--------------------------------------------------------------------------|

[CHORUS (pt II)]  (x2)
D|---------------------------------------------------------------------------|
A|---------------------------------------------------------------------------|
F|-5-5-5-5-5-5-5-5-2-2-2-2-4-4-4-4---5-5-5-5-5-5-5-5-2-2-2-2-4-4-4-4---------|
C|---------------------------------------------------------------------------|
G|-3-3-3-3-3-3-3-3-0-0-0-0-2-2-2-2---3-3-3-3-3-3-3-3-0-0-0-0-2-2-2-2---------|
C|---------------------------------------------------------------------------|

[Verse]
D|---------------------------------------------------------------------------|
A|---------------------------------------------------------------------------|
F|--5~-----------------------------------------------------------------------|
C|---------------------------------------------------------------------------|
G|--3~-----------------------------------------------------------------------|
C|---------------------------------------------------------------------------|
Just hold that note and then stop, there's strings playing - probably Rou on his EMX,
 and then there's a bit on piano - that'll be Rou as well. You've nothing to worry
 about at this bit, have a brew :)

Intro/tapping bit again once, then Chorus pt I twice.

[Chorus (pt II)] Variation - x 2
D|---------------------------------------------------------------------------|
A|---------------------------------------------------------------------------|
F|--5-5-5--5-5-5--5-5-5---2-2-2--4-4-4---------------------------------------|
C|---------------------------------------------------------------------------|
G|--3-3-3--3-3-3--3-3-3---0-0-0--2-2-2---------------------------------------|
C|---------------------------------------------------------------------------|

- Variation of the Variation -  x 2
D|----------------------------------------------------------------------------------------|
A|----------------------------------------------------------------------------------------|
F|----------------------------------------------------------------------------------------|
G|10-10-10--10-10-10--10-10-10--10-10-10-10-10-10-10-12--9-9-9--9-9-9--9-9-9-9-9-9-9-9-7-9|
C|10-10-10--10-10-10--10-10-10--10-10-10-10-10-10-10-12--9-9-9--9-9-9--9-9-9-9-9-9-9-9-7-9|
G|10-10-10--10-10-10--10-10-10--10-10-10-10-10-10-10-12--9-9-9--9-9-9--9-9-9-9-9-9-9-9-7-9|

- Variation of the Variation of the Variation?! -  x 2
D|----------------------------------------------------------------------------------------|
A|----------------------------------------------------------------------------------------|
F|----------------------------------------------------------------------------------------|
G|10-10-10--10-10-10--10-10-10--10-10-10-10-10-10-10-12--9-9-9--9-9-9--9-9-9-9-9-9-9-9-3-5|
C|10-10-10--10-10-10--10-10-10--10-10-10-10-10-10-10-12--9-9-9--9-9-9--9-9-9-9-9-9-9-9-3-5|
G|10-10-10--10-10-10--10-10-10--10-10-10-10-10-10-10-12--9-9-9--9-9-9--9-9-9-9-9-9-9-9-3-5|
Then the tapping riff once more, and the chorus pt I and II a final time.
Then play the chorus clean, and you're done :D
Happy playing!



[Chorus PtI] And I know that we've still got time,
But I do not think we're invincible.
And I think that it is a sign,
'Cause I do not think we're invincible

[Chorus PtII] Crushing all in its path (x4)

[Verse] Now don't get me wrong I love what you done with the place
I just wish you had a chance to help build it
Instead of just moving into this home of disrepair
And expect it to work, prosper and then share
Constantly relying on consuming to feel content
But only because we lost such with this home that we've spent
Trillions of dollars paying for our wants and not our needs
And now we're growing tired of planting bleary-eyed seeds

And I'm not saying that we could do better
But given the chance we'd try (we'd try)
We dig up the earth's not won soil
And feel the drench with greedy eyes

SWITCH!

[Chorus PtI] And I know that we've still got time
But I do not think we're invincible
And I think that it is a sign
Deep breaths, clentched fists, here comes another jug-ger-naut!

[Chorus PtII Variation] Crushing all in it's path (x2)

(Variation of the variation) What the hell, what happened now! ?
I really don't know man!

(You know the drill) We'll do what we've always done
Shut our eyes and hope for the best
NO! We're gonna face this
And step out onto the tracks
Stare it right in the face
THOU SHALL NOT PASS!

[Chorus PtI] And I know that we've still got time
But I do not think we're invincible
And I think that it is a sign
'Cos I do not think we're invinvible

[Chorus PtII] Crushing all in it's path (x4)

[Chorus PtI] And I know that we've still got time
But I do not think we're invincible
And I think that it is a sign
Deep breaths, clentched fists, here comes another jug-ger-naut!

(End!) And I know that we've still got time
But I do not think we're invincible
The idea of community
Will be something displayed in a museum

:) xox
===============================================================================


************************************

| /  slide up
| \  slide down
| h  hammer-on
| p  pull-off
| ~  vibrato
| +  harmonic
| x  Mute note

************************************
Suggest correction
Give kudos to tab author, rate the tab!
1 2 3 4 5
comments
print report bad tab
2 comments total.
0 reply
sottpwn 67 Jun 06, 2009 07:49 PM

Looks pretty good, the tapping part sounds right.

0 reply
Nofootcanman 20 Sep 12, 2012 10:55 AM

this guys got it dialed to be honest, hes got a few different vovings on the chords http://www.youtube.com/watch?v=-J0DJnnaDZA

guest
You may want to rate the tab now too:
select rating
Wanna post a correction for this tab? Suggest correction