Oops, an error
Loading. Please wait.

Juggernauts Tab

version 2
version 2

Whole song

Interactive

42,780 views 3 this week
10 commentsread comments
1 2 3 4 5
excellent!
x 6
add to favorites
launch autoscroll
font size
0
reset
how to read this tab
guitar tuner
Autoscroll
slow
fast
+/-
esc
set tempo
stop
Help us to improve Ultimate-Guitar.com Take our survey!
×
Author
Juggernauts
Enter Shikari
Common Dreads (2009)
TABBED BY RYANISTHEOCEAN!

Tuning Drop C



Intro

D-----------------------------------|----------------------------------|
A-----------------------------------|----------------------------------|
F-12-5-11-5-12-5-16-5-12-5-11-5-12-9|12-2-11-2-12-2-16-4-12-4-11-5-16--| X2
C-----------------------------------|----------------------------------|
G-----------------------------------|----------------------------------|
C-----------------------------------|----------------------------------|

And I Know That We Still Got Time...

D-3-3-3-3-3-3-3-3|-5-5-5-5-5-5--7-7|-3-3-3-3-3-3-3-3|-7-7-7-7-7-7--5-5|
A-0-0-0-0-0-0-0-0|-0-0-0-0-0-0--0-0|-0-0-0-0-0-0-0-0|-0-0-0-0-0-0--0-0|
D-0-0-0-0-0-0-0-0|-0-0-0-0-0-0--0-0|-0-0-0-0-0-0-0-0|-0-0-0-0-0-0--0-0|X4
C-0-0-0-0-0-0-0-0|-0-0-0-0-0-0--0-0|-0-0-0-0-0-0-0-0|-0-0-0-0-0-0--0-0|
G-3-3-3-3-3-3-3-3|-5-5-5-5-5-5--7-7|-3-3-3-3-3-3-3-3|-7-7-7-7-7-7--5-5|
C-x-x-x-x-x-x-x-x|-x-x-x-x-x-x--x-x|-x-x-x-x-x-x-x-x|-x-x-x-x-x-x--x-x|


Now Dont Get Me Wrong I Love what You've done to the place...

Clean (Listen for picking rhythem)

D----------------------------|
A--------------------3-------|
F-------4------4-------------| Listen to the track
C---2-----2------2-----2-----|
G-3---3-----3------3------3--|
C----------------------------|

The Bit Before SWITCH!!!!

D--------------------|
A-12-----------------|
F----12------12------|
C--------------------|
G----------12--------|
C--------------------|
Harmonics

SWITCH!!!

D-----------------------------------|----------------------------------|
A-----------------------------------|----------------------------------|
F-12-5-11-5-12-5-16-5-12-5-11-5-12-9|12-2-11-2-12-2-16-4-12-4-11-5-16--| X2
C-----------------------------------|----------------------------------|
G-----------------------------------|----------------------------------|
C-----------------------------------|----------------------------------|

And I Know That We Still Got Time...

D-3-3-3-3-3-3-3-3|-5-5-5-5-5-5--7-7|-3-3-3-3-3-3-3-3|-7-7-7-7-7-7--5-5|
A-0-0-0-0-0-0-0-0|-0-0-0-0-0-0--0-0|-0-0-0-0-0-0-0-0|-0-0-0-0-0-0--0-0|
F-0-0-0-0-0-0-0-0|-0-0-0-0-0-0--0-0|-0-0-0-0-0-0-0-0|-0-0-0-0-0-0--0-0|X2
C-0-0-0-0-0-0-0-0|-0-0-0-0-0-0--0-0|-0-0-0-0-0-0-0-0|-0-0-0-0-0-0--0-0|
G-3-3-3-3-3-3-3-3|-5-5-5-5-5-5--7-7|-3-3-3-3-3-3-3-3|-7-7-7-7-7-7--5-5|
C-x-x-x-x-x-x-x-x|-x-x-x-x-x-x--x-x|-x-x-x-x-x-x-x-x|-x-x-x-x-x-x--x-x|

CRUSHING ALL IN ITS PATH!

D-3--3--3-----|-333-3--3---333-3--3|
A-0--0--0-----|-000-0--0---000-0--0|
F-0--0--0-----|-000-0--0---000-0--0| X2
C-0--0--0-----|-000-0--0---000-0--0|
G-3--3--3-----|-000-0--0---222-2--2|
C-------------|--------------------|

WHAT THE HELL WILL HAPPEN NOW!?!?

D-3--3--3------|-3--3--3--------|-3--3--3------|-3--3--3-------|
A-0--0--0------|-0--0--0--------|-0--0--0------|-0--0--0-------|
D-0--0--0------|-0--0--0--------|-0--0--0------|-0--0--0-------|X2
C-0--0--0------|-0--0--0--------|-0--0--0------|-0--0--0---0--2|
G-3--3--3------|-2--2--2-----0-2|-3--3--3------|-2--2--2---0--2|
C--------------|----------------|--------------|-----------0--2|


THOU SHALL NOT PASS!!!

D-----------------------------------|----------------------------------|
A-----------------------------------|----------------------------------|
F-12-5-11-5-12-5-16-5-12-5-11-5-12-9|12-2-11-2-12-2-16-4-12-4-11-5-16--| X2
C-----------------------------------|----------------------------------|
G-----------------------------------|----------------------------------|
C-----------------------------------|----------------------------------|

And I Know That We Still Got Time...

D-3-3-3-3-3-3-3-3|-5-5-5-5-5-5--7-7|-3-3-3-3-3-3-3-3|-7-7-7-7-7-7--5-5|
A-0-0-0-0-0-0-0-0|-0-0-0-0-0-0--0-0|-0-0-0-0-0-0-0-0|-0-0-0-0-0-0--0-0|
F-0-0-0-0-0-0-0-0|-0-0-0-0-0-0--0-0|-0-0-0-0-0-0-0-0|-0-0-0-0-0-0--0-0|X8
C-0-0-0-0-0-0-0-0|-0-0-0-0-0-0--0-0|-0-0-0-0-0-0-0-0|-0-0-0-0-0-0--0-0|
G-3-3-3-3-3-3-3-3|-5-5-5-5-5-5--7-7|-3-3-3-3-3-3-3-3|-7-7-7-7-7-7--5-5|
C-x-x-x-x-x-x-x-x|-x-x-x-x-x-x--x-x|-x-x-x-x-x-x-x-x|-x-x-x-x-x-x--x-x|

HERE COMES ANOTHER JUGGERNAUT!!!

D-----------------------------------|----------------------------------|
A-----------------------------------|----------------------------------|
F-12-5-11-5-12-5-16-5-12-5-11-5-12-9|12-2-11-2-12-2-16-4-12-4-11-5-16--| X2
C-----------------------------------|----------------------------------|
G-----------------------------------|----------------------------------|
C-----------------------------------|----------------------------------|

Outro/ And I Know That We Still Got Time...


D-3-3-3-3-3-3-3-3|-5-5-5-5-5-5--7-7|-3-3-3-3-3-3-3-3|-7-7-7-7-7-7--5-5|
A-0-0-0-0-0-0-0-0|-0-0-0-0-0-0--0-0|-0-0-0-0-0-0-0-0|-0-0-0-0-0-0--0-0|
F-0-0-0-0-0-0-0-0|-0-0-0-0-0-0--0-0|-0-0-0-0-0-0-0-0|-0-0-0-0-0-0--0-0|X4
C-0-0-0-0-0-0-0-0|-0-0-0-0-0-0--0-0|-0-0-0-0-0-0-0-0|-0-0-0-0-0-0--0-0|
G-3-3-3-3-3-3-3-3|-5-5-5-5-5-5--7-7|-3-3-3-3-3-3-3-3|-7-7-7-7-7-7--5-5|
C-x-x-x-x-x-x-x-x|-x-x-x-x-x-x--x-x|-x-x-x-x-x-x-x-x|-x-x-x-x-x-x--x-x|

Just Strum A Bit Slower
Suggest correction
What's this?
You can suggest a correction to this tab. Community and Mods will review your correction and vote to approve or reject it.
comments
print report bad tab
10 comments total. Showing first comments.
0 reply
Euan444 41 wrote on June 1 2009, 02:17 pm

D-3-3-3-3-3-3-3-3|-5-5-5-5-5-5--7-7|-3-3-3-3-3-3-3-3|-7-7-7-7-7-7--5-5|
A-1-1-1-1-1-1-1-1|-3-3-3-3-3-3--5-5|-1-1-1-1-1-1-1-1|-5-5-5-5-5-5--3-3|
D-0-0-0-0-0-0-0-0|-0-0-0-0-0-0--0-0|-0-0-0-0-0-0-0-0|-0-0-0-0-0-0--0-0|X4
C-0-0-0-0-0-0-0-0|-0-0-0-0-0-0--0-0|-0-0-0-0-0-0-0-0|-0-0-0-0-0-0--0-0|
G-3-3-3-3-3-3-3-3|-5-5-5-5-5-5--7-7|-3-3-3-3-3-3-3-3|-7-7-7-7-7-7--5-5|
C-x-x-x-x-x-x-x-x|-x-x-x-x-x-x--x-x|-x-x-x-x-x-x-x-x|-x-x-x-xx-x--x-x|

sound a bit more correct...but overall a good tab :)

0 reply
hughh1000 123 wrote on June 15 2009, 05:09 am

EUAN444 is correct
also , mint tab:)
one thing though its hard to tap 16 so maybe put the first finger on the 2nd string on the first fret if you get what i mean, its a lot easier x

0 reply
hughh1000 123 wrote on June 15 2009, 05:11 am

on the first one anyway, you cant do it when the lower note is g

guest
You may want to rate the tab now too:
select rating
Please do not post tabs as comments. Select "correction" instead!