Oops, an error
Loading. Please wait.

Kickin Back On The Surface Of Your Cheek Bass Bass Tab

1,074 views 1 this week
no commentswrite comment
1 2 3 4 5
please rate
add to favorites
launch autoscroll
font size
0
reset
guitar tuner
Tab Pro tools
  • play this tab
  • loop segment
  • change instrument
  • show fretboard
  • metronome
×
Best way to learn
"Kickin Back On The Surface Of Your Cheek Bass"
Autoscroll
slow
fast
+/-
esc
set tempo
stop
Contributor
Difficulty
Tuning
novice
D A D G B E
Enter Shikari
Kickin' Back on The Surface Of Your Cheek

Ok, so it's in Drop D and its not 100% by any means but i thought i'd have a go cos 
else has.
Any suggestions feel free to email me joel-92@hotmail.co.uk and i'll happily make
because it's far from perfect I know!

:D


Drop D

Intro

---------------------------|
---------------------------|
---------------------------|
12~--/14----8-----4-----6--|    x2


Verse

Theres lots of ways I could write this but i think it sounds better played on the bottom string


--------------------------------------------------|
--------------------------------------------------|
--------------------------------------------------|
1212121212121212-88888888-44444444-66666666-------|      x4


Chorus

----------------------------------------------|
----------------------------------------------|
----------------------------------------------|
/12-12--12-12\-8-8--8-8-\4-4--4-4-/6-6--6-6---|   x2


Verse

---------------------------|
---------------------------|
---------------------------|
12~--/14----8-----4-----6--|    x4

--------------------------------------------------|
--------------------------------------------------|
--------------------------------------------------|
1212121212121212-88888888-44444444-66666666-------|      x2


Chorus

----------------------------------------------|
----------------------------------------------|
----------------------------------------------|
/12-12--12-12\-8-8--8-8-\4-4--4-4-/6-6--6-6---|   x2


-----
-----
-----
0~---


breakdown


-------------------------------------------------------------------|
-------------------------------------------------------------------|
-------------------------------------------------------------------|
-0-0-0--12--12--12--1010101010-12121212121212121212121212121212----|   x3


----pick scrape----|
----pick scrape----|
-------------------|
-------------------|

Repeat until end:

---------------------|
---------------------|
---------------------|
-0000-0-00----12-10--|
comments
We did not receive enough feedback on this tab! Please rate:
print report bad tab
1 2 3 4 5
I want to post or [tab]
guest
You may want to rate the tab now too:
select rating
Please do not post tabs as comments. Select "correction" instead!