Oops, an error
Loading. Please wait.

Labyrinth Bass

version 1
version 1

Whole song

Interactive

3,258 views 1 this week
1 commentread comment
1 2 3 4 5
1 last vote to show rating
add to favorites
×
Save as Personal and add changes to this tab that will be seen only by you. Learn more ›
launch autoscroll
font size
0
reset
guitar tuner
Autoscroll
slow
fast
+/-
esc
set tempo
stop
Author
Difficulty
Enter Shikari
Labyrinth
Bass Tab
Stufin135 (Hellbassist1)

I didn't see one of these yet so i write out what i play its probally incorrect but it
the trick. Its hard to figure out the timing in the chorus and intro parts but just give
a little rest between the 3rd and 5th fret on The A string (in other words give a 2 beat
after the C and D) Enjoy please rate farily and leave helpful critisim!!!!!

Intro
G||---------|---------------------------|----|---------------------------||
D||---------|---------------------------|----|---------------------------||
A||---------|-----3--------3--2--3--2-0-|----|-----5--------3--2--3--2-0-||
E||--0-0-0--|--0------------------------|----|--0------------------------||

G||---------|---------------------------|----|---------------------------||
D||---------|---------------------------|----|---------------------------||
A||---------|-----3--------3--2--3--2-0-|----|-----5--------3--2--3--2-0-||
E||--0-0-0--|--0------------------------|----|--0------------------------||

Verse
G||--------------------------------|---------------------------------||
D||--------------------------------|-----------------8-8-8-8-6-6-6-6-||
A||--------3p--2h-3-------5p--4h-5-|--------7p--6h-7-----------------||
E||--0--0-----------0--0-----------|--0--0---------------------------||

G||--------------------------------|---------------------------------||
D||--------------------------------|-----------------8-8-8-8-6-------||
A||--------3p--2h-3-------5p--4h-5-|--------7p--6h-7-----------------||
E||--0--0-----------0--0-----------|--0--0---------------------------||

Pre-Chorus
G||--------------------------|--------------------------|--------------------------|--------------------------|--------------------------|
D||--------------------------|--------------------------|--------------------------|--------------------------|--------------------------|
A||--3--3--3--3--3--3--3--3--|--5--5--5--5--5--5--5--5--|--7--7--7--7--7--7--7--7--|--9--9--9--9--7--7--7--7--|--3--3--3--3--3--3--3--3--|
E||--------------------------|--------------------------|--------------------------|--------------------------|--------------------------|

G||--------------------------|----------------------|----------------------|--------------------------|--------------------------||
D||--------------------------|----------------------|----------------------|--------------------------|--------------------------||
A||--5--5--5--5--5--5--5--5--|--7----7----7----7----|--9----9----7----7----|--3--3--3--3--3--3--3--3--|--5--5--5--5--5--5--5--5--||
E||--------------------------|----------------------|----------------------|--------------------------|--------------------------||

Chorus
G||---------|---------------------------|----|---------------------------||
D||---------|---------------------------|----|---------------------------||
A||---------|-----3--------3--2--3--2-0-|----|-----5--------3--2--3--2-0-||
E||--0-0-0--|--0------------------------|----|--0------------------------||

G||---------|---------------------------|----|---------------------------||
D||---------|---------------------------|----|---------------------------||
A||---------|-----3--------3--2--3--2-0-|----|-----5--------3--2--3--2-0-||
E||--0-0-0--|--0------------------------|----|--0------------------------||

Verse
G||--------------------------------|---------------------------------||
D||--------------------------------|-----------------8-8-8-8-6-6-6-6-||
A||--------3p--2h-3-------5p--4h-5-|--------7p--6h-7-----------------||
E||--0--0-----------0--0-----------|--0--0---------------------------||

G||--------------------------------|---------------------------------||
D||--------------------------------|-----------------8-8-8-8-6-------||
A||--------3p--2h-3-------5p--4h-5-|--------7p--6h-7-----------------||
E||--0--0-----------0--0-----------|--0--0---------------------------||

Pre-Chorus
G||--------------------------|--------------------------|--------------------------|--------------------------|--------------------------|
D||--------------------------|--------------------------|--------------------------|--------------------------|--------------------------|
A||--3--3--3--3--3--3--3--3--|--5--5--5--5--5--5--5--5--|--7--7--7--7--7--7--7--7--|--9--9--9--9--7--7--7--7--|--3--3--3--3--3--3--3--3--|
E||--------------------------|--------------------------|--------------------------|--------------------------|--------------------------|

G||--------------------------|----------------------|----------------------|--------------------------|--------------------------||
D||--------------------------|----------------------|----------------------|--------------------------|--------------------------||
A||--5--5--5--5--5--5--5--5--|--7----7----7----7----|--9----9----7----7----|--3--3--3--3--3--3--3--3--|--5--5--5--5--5--5--5--5--||
E||--------------------------|----------------------|----------------------|--------------------------|--------------------------||

Chorus
G||---------|---------------------------|----|---------------------------||
D||---------|---------------------------|----|---------------------------||
A||---------|-----3--------3--2--3--2-0-|----|-----5--------3--2--3--2-0-||
E||--0-0-0--|--0------------------------|----|--0------------------------||

G||---------|---------------------------|----|---------------------------||
D||---------|---------------------------|----|---------------------------||
A||---------|-----3--------3--2--3--2-0-|----|-----5--------3--2--3--2-0-||
E||--0-0-0--|--0------------------------|----|--0------------------------||

Breakdown
G||-------------------|-------------------|-------------------|---------------------|-------------------|-------------------||
D||-------------------|-------------------|-------------------|---------------------|-------------------|-------------------||
A||-------------------|-------------------|-------------------|---------------------|-------------------|-------------------||
E||--0----------------|--3----------------|--5----------------|--3p----0------------|--0----------------|--3----------------||

G||-------------------|---------------------|-----------------------------|-----------------------------|-----------------------------||
D||-------------------|---------------------|-----------------------------|-----------------------------|-----------------------------||
A||-------------------|---------------------|-----------------------------|-----------------------------|-----------------------------||
E||--5----------------|--3p----0------------|--0--0---0--0---0--0---0--0--|--3--3---3--3---3--3---3--3--|--5--5---5--5---5--5---5--5--||

G||-----------------------------|--------------||
D||-----------------------------|--------------||
A||-----------------------------|--------------||
E||--0--0---3--3---0--0---5--5--|--0--0--3-----||

G||-----------------------------|-----------------------------|-----------------------------||
D||-----------------------------|-----------------------------|-----------------------------||
A||-----------------------------|-----------------------------|-----------------------------||
E||--0--0---0--0---0--0---0--0--|--3--3---3--3---3--3---3--3--|--5--5---5--5---5--5---5--5--||

G||--------------------------|-------------||
D||--------------------------|-------------||
A||--------------------------|-------------||
E||--0--0--3--3--0--0--5--5--|--0--0--3----||

Bridge

G||-----------------------------|-----------------------------|-----------------------------|-----------------------------||
D||-----------------------------|-----------------------------|-----------------------------|-----------------------------||
A||-----------------------------|-----------------------------|-----------------------------|-----------------------------||
E||--0--3---0--5---0--3---0--5--|--0--3---0--5---0--3---0--5--|--0--3---0--5---0--3---0--5--|--0--3---0--5---0--3---0--5--||

Outro
D||---------|---------------------------|----|---------------------------||
A||---------|-----3--------3--2--3--2-0-|----|-----5--------3--2--3--2-0-||
E||--0-0-0--|--0------------------------|----|--0------------------------||

G||---------|---------------------------|----|---------------------------||
D||---------|---------------------------|----|---------------------------||
A||---------|-----3--------3--2--3--2-0-|----|-----5--------3--2--3--2-0-||
E||--0-0-0--|--0------------------------|----|--0------------------------||

D||---------|---------------------------|----|---------------------------||
A||---------|-----3--------3--2--3--2-0-|----|-----5--------3--2--3--2-0-||
E||--0-0-0--|--0------------------------|----|--0------------------------||

G||---------|---------------------------|----|---------------------------||
D||---------|---------------------------|----|---------------------------||
A||---------|-----3--------3--2--3--2-0-|----|-----5--------3--3-----5-5-||
E||--0-0-0--|--0------------------------|----|--0------------------------||
Suggest correction
Give kudos to tab author, rate the tab!
1 2 3 4 5
comments
print report bad tab
1 comment total.
0 reply
hells bassist 10 May 26, 2007 08:25 AM

thats really bad i cbf to tab it but yeah sounds absoulutly nothing like it and it defenitly is not tuned to standard tuning besides that good tab

guest
You may want to rate the tab now too:
select rating
Wanna post a correction for this tab? Suggest correction