Oops, an error
Loading. Please wait.

Labyrinth Bass Tab

version 2
version 2

Whole song

Interactive

3,405 views 3 this week
no commentswrite comment
1 2 3 4 5
worth learning
x 4
add to favorites
launch autoscroll
font size
0
reset
guitar tuner
Autoscroll
slow
fast
+/-
esc
set tempo
stop
Help us to improve Ultimate-Guitar.com Take our survey!
×
Difficulty
Tuning
intermediate
C# G# C# F# A# D#
Labyrinth by Enter Shikari
Not 100% perfect but it works for me
Tune half a step down on all strings then to drop D

Intro,Chorus and Outro
F#|------------------|
A#|------------------|
G#|-5----------------|
C#|----8--555-3-5-3--|

F#|-------------------|
A#|-------------------|
G#|-55----------------|
C#|----88--555-3-5-3--|


Verse
HELP! (you have to listen very carefully for this bit)
F#|--------------------------------------------------------|
A#|--------------------------------------------------------|
G#|-555-555-5h777-777-7h888-888-12121212-10----------------|
C#|--------------------------------------------------------|

12s not 1,2s

2nd time round
F#|-------------------------------------------------|
A#|-------------------------------------------------|
G#|-555-555-5h777-777/1515151515\131313\1212-12-----|
C#|-------------------------------------------------|

Pre Chorus
F#|-------------------------------------------------|
A#|-------------------------------------------------|
G#|-555-555-5h777-777-------------------------------|
C#|-------------------------------------------------|


Breakdown(Nothing seems to) REALLY LISTEN HARD
F#|-------------------------------------------------------------|
A#|-------------------------------------------------------------|
G#|-------------------------------------------------------------|
C#|-00~-----33~-----55~-----00~-----00~-----33~-----55~-----00~-|

Breakdown (WE'LL BREAK THE WALLS!)
F#|-----------------------------------------------------------------------|
A#|----------------------------------------------------5h7-5h7----5h7-5h7-|
G#|-------------------------------------------------55---------55---------|
C#|-00--00--00--00--33--33--33--33--55--55--55--55------------------------|


F#|------------|
A#|----5h7-----|
G#|-55---------|
C#|------------| x2

Well It looks like the end is nigh for our friend here
F#|------------|
A#|------------|
G#|------------|
C#|-15\--------|
Suggest correction
comments
print report bad tab
guest
You may want to rate the tab now too:
select rating
Wanna post a correction for this tab? Suggest correction