Oops, an error
Loading. Please wait.

Labyrinth tab

version 2
version 2

Whole song

Interactive

3,017 views 1 this week
3 commentsread comments
1 2 3 4 5
x 3
add to favorites
×
Save as Personal and add changes to this tab that will be seen only by you. Learn more ›
×
You can save this tab as Personal to edit and correct it or add notes. All changes will be seen only by you. Learn more »
launch autoscroll
font size
0
reset
how to read this tab
guitar tuner
edit
Autoscroll
slow
fast
+/-
esc
set tempo
stop
here is how i play it
my first tab:)

comments welcomed

q's philip__morrison@hotmail.co.uk  (2 underscores)

(drop D)

Intro:
e|-----------------------------------------------------|
B|-----------------------------------------------------|
G|-------7-----------------------7---------------------|
D|--xxx--x--77--55--5--4/5/4--0--x--77--55--5--4/5-----|
A|--xxx--5--77--55--5--4/5/4--0--5--77--55--5--4/5-----|
D|--xxx-----77--55--5--4/5/4--0-----77--55--5--4/5-----|

e|-----------------------------------------------------|
B|-----------------------------------------------------|
G|-------7-----------------------7---------------------|
D|-------x--77--55--5--4/5/4--0--x--77--55--5--4/5-----|
A|-------5--77--55--5--4/5/4--0--5--77--55--5--4/5-----|
D|----------77--55--5--4/5/4--0-----77--55--5--4/5-----|

("HELP....")
e|-----------------------------------------------------|
B|-----------------------------------------------------|
G|--7777--777--9999--999--11111111--111111-------------|
D|--7777--777--9999--999--11111111--111111-------------|
A|--5555--555--7777--777---9-9-9-9--9-9-9--------------|
D|-----------------------------------------------------|

e|-----------------------------------------------------|
B|-----------------------------------------------------|
G|--14141414-12121212----------------------------------|
D|--14141414-12121212----------------------------------|
A|--12121212-10101010----------------------------------|
D|-----------------------------------------------------|

e|-----------------------------------------------------|
B|-----------------------------------------------------|
G|----9999--999--11111111--111111----------------------|
D|----9999--999--11111111--111111----------------------|
A|----7777--777---9-9-9-9--9-9-9-----------------------|
D|-----------------------------------------------------|

e|-----------------------------------------------------|
B|-----------------------------------------------------|
G|---161616161616161616/14-1414-14/13-1313-------------|
D|----x-x-x-x-x-x-x-x-x--x--x-x--x--x--x-x-------------|
A|---141414141414141414/12-1212-12/11-1111-------------|
D|-----------------------------------------------------|

e|-----------------------------------------------------|
B|-----------------------------------------------------|
G|--7----9----11----14----12---------------------------|
D|--7-x8-9-x8-11-x8-14-x4-12-x4------------------------|
A|--5----7-----9----12----10---------------------------|
D|-----------------------------------------------------|

e|-----------------------------------------------------|
B|-----------------------------------------------------|
G|--9----11----16----16/14-1414-14/13-1313-13/11-1111--|
D|--9-x8-11-x8-16-x4-16/14-1414-14/13-1313-13/11-1111--|
A|--7-----9----14----14/12-1212-12/11-1111--9/9---9-9--|
D|-----------------------------------------------------|

e|-----------------------------------------------------|
B|-----------------------------------------------------|
G|----9-----11-----------------------------------------|
D|----9--x8-11--x8-------------------------------------|
A|----7------9-----------------------------------------|
D|-----------------------------------------------------|

e|-----------------------------------------------------|
B|-----------------------------------------------------|
G|-------7-----------------------7---------------------|
D|--xxx--x--77--55--5--4/5/4--0--x--77--55--5--4/5-----|
A|--xxx--5--77--55--5--4/5/4--0--5--77--55--5--4/5-----|
D|--xxx-----77--55--5--4/5/4--0-----77--55--5--4/5-----|

e|-----------------------------------------------------|
B|-----------------------------------------------------|
G|-------7-----------------------7---------------------|
D|-------x--77--55--5--4/5/4--0--x--77--55--5--4/5-----|
A|-------5--77--55--5--4/5/4--0--5--77--55--5--4/5-----|
D|----------77--55--5--4/5/4--0-----77--55--5--4/5-----|

("HELP....")
e|-----------------------------------------------------|
B|-----------------------------------------------------|
G|--7777--777--9999--999--11111111--111111-------------|
D|--7777--777--9999--999--11111111--111111-------------|
A|--5555--555--7777--777---9-9-9-9--9-9-9--------------|
D|-----------------------------------------------------|

e|-----------------------------------------------------|
B|-----------------------------------------------------|
G|--14141414-12121212----------------------------------|
D|--14141414-12121212----------------------------------|
A|--12121212-10101010----------------------------------|
D|-----------------------------------------------------|

e|-----------------------------------------------------|
B|-----------------------------------------------------|
G|----9999--999--11111111--111111----------------------|
D|----9999--999--11111111--111111----------------------|
A|----7777--777---9-9-9-9--9-9-9-----------------------|
D|-----------------------------------------------------|

e|-----------------------------------------------------|
B|-----------------------------------------------------|
G|---161616161616161616/14-1414-14/13-1313-------------|
D|----x-x-x-x-x-x-x-x-x--x--x-x--x--x--x-x-------------|
A|---141414141414141414/12-1212-12/11-1111-------------|
D|-----------------------------------------------------|

e|-----------------------------------------------------|
B|-----------------------------------------------------|
G|--7----9----11----14----12---------------------------|
D|--7-x8-9-x8-11-x8-14-x4-12-x4------------------------|
A|--5----7-----9----12----10---------------------------|
D|-----------------------------------------------------|

e|-----------------------------------------------------|
B|-----------------------------------------------------|
G|--9----11----16----16/14-1414-14/13-1313-13/11-1111--|
D|--9-x8-11-x8-16-x4-16/14-1414-14/13-1313-13/11-1111--|
A|--7-----9----14----14/12-1212-12/11-1111--9/9---9-9--|
D|-----------------------------------------------------|

e|-----------------------------------------------------|
B|-----------------------------------------------------|
G|----9-----11-----------------------------------------|
D|----9--x8-11--x8-------------------------------------|
A|----7------9-----------------------------------------|
D|-----------------------------------------------------|

e|-----------------------------------------------------|
B|-----------------------------------------------------|
G|-------7-----------------------7---------------------|
D|--xxx--x--77--55--5--4/5/4--0--x--77--55--5--4/5-----|
A|--xxx--5--77--55--5--4/5/4--0--5--77--55--5--4/5-----|
D|--xxx-----77--55--5--4/5/4--0-----77--55--5--4/5-----|

e|-----------------------------------------------------|
B|-----------------------------------------------------|
G|-------7-----------------------7---------------------|
D|-------x--77--55--5--4/5/4--0--x--77--55--5--4/5-----|
A|-------5--77--55--5--4/5/4--0--5--77--55--5--4/5-----|
D|----------77--55--5--4/5/4--0-----77--55--5--4/5-----|

e|-----------------------------------------------------|
B|-----------------------------------------------------|
G|-----------------------------------------------------|
D|-----------------------------------------------------|
A|-----7---9----11----12---11-11-9---------------------|
D|--00---0---00----00----0-----------------------------|

(finger tapping - use left hand for 7 and right for the rest)
e|-----------------------------------------------------|
B|-----------------------------------------------------|
G|--0-7-12-0-7-14-0-7-15-0-7-14-0-7-12-----------------|
D|-----------------------------------------------------|
A|-----------------------------------------------------|
D|-----------------------------------------------------|

e|-----------------------------------------------------|
B|--0-7-14-0-7-15-0-7-17-0-7-15-0-7-14-----------------|
G|-----------------------------------------------------|
D|-----------------------------------------------------|
A|-----------------------------------------------------|
D|-----------------------------------------------------|

e|-----------------------------------------------------|
B|--0-7-12-0-11~-0-9p11-0-9-11-0-9-11------------------|
G|-----------------------------------------------------|
D|-----------------------------------------------------|
A|-----------------------------------------------------|
D|-----------------------------------------------------|

e|-----------------------------------------------------|
B|-----------------------------------------------------|
G|--0-7-12-0-7-14-0-7-15-0-7-14-0-7-12-----------------|
D|-----------------------------------------------------|
A|-----------------------------------------------------|
D|-----------------------------------------------------|

e|-----------------------------------------------------|
B|--0-7-14-0-7-15-0-7-17-0-7-15-0-7-14-----------------|
G|-----------------------------------------------------|
D|-----------------------------------------------------|
A|-----------------------------------------------------|
D|-----------------------------------------------------|

e|-----------------------------------------------------|
B|--0-7-12-0-11~-0-9p11-0-9-11-0-9-11------------------|
G|-----------------------------------------------------|
D|-----------------------------------------------------|
A|-----------------------------------------------------|
D|-----------------------------------------------------|

("We'll break the walls...)                             __  
e|-----------------------------------------------------|  |
B|-----------------------------------------------------|  |
G|------11-----------9p11-9p11------9p11-9p11----------|  |
D|--00--11--x12--00-------------00---------------------|  |
A|--00---9-------00-------------00---------------------|  |
D|--00-----------00-------------00---------------------|  |___
    xx           xx             xx                         ___x2
e|-----------------------------------------------------|  |
B|-----------------------------------------------------|  |
G|------9p11------end on ------------------------------|  |
D|--00-------------------0~----------------------------|  |
A|--00-------------------0~----------------------------|  |
D|--00-------------------0~----------------------------|__|
    xx
e|-----------------------------------------------------|
B|-----------------------------------------------------|
G|-----------------------------------------------------|
D|-----------------------------------------------------|
A|-----------------------------------------------------|
D|----PICK SLIIIIIIIIIIIIIIDE--------------------------|

e|-----------------------------------------------------|
B|-----------------------------------------------------|
G|-------7-----------------------7---------------------|
D|--xxx--x--77--55--5--4/5/4--0--x--77--55--5--4/5-----|
A|--xxx--5--77--55--5--4/5/4--0--5--77--55--5--4/5-----|
D|--xxx-----77--55--5--4/5/4--0-----77--55--5--4/5-----|

e|-----------------------------------------------------|
B|-----------------------------------------------------|
G|-------7-----------------------7---------------------|
D|-------x--77--55--5--4/5/4--0--x--77--55--5--4/5-----|
A|-------5--77--55--5--4/5/4--0--5--77--55--5--4/5-----|
D|----------77--55--5--4/5/4--0-----77--55--5--4/5-----|

e|-----------------------------------------------------|
B|-----------------------------------------------------|
G|-------7-----------------------7---------------------|
D|--xxx--x--77--55--5--4/5/4--0--x--77--55--5--4/5-----|
A|--xxx--5--77--55--5--4/5/4--0--5--77--55--5--4/5-----|
D|--xxx-----77--55--5--4/5/4--0-----77--55--5--4/5-----|

e|-----------------------------------------------------|
B|-----------------------------------------------------|
G|-------7-----------------------7---------------------|
D|-------x--77--55--5--4/5/4--0--x--77--55--55---------|
A|-------5--77--55--5--4/5/4--0--5--77--55--55---------|
D|----------77--55--5--4/5/4--0-----77--55--55---------|
Suggest correction
Creating personal tab
Creating personal tab
You can edit any tab online and save it as your Personal.

You can edit, replace or remove any tab part or add personal notes – all changes will be seen only by you.

Personal tabs can be accessed anytime from any device, even offline.
Learn more »
Give kudos to tab author, rate the tab!
1 2 3 4 5
comments
print report bad tab
3 comments total.
0 reply
BiggerThanJesus 52 Aug 27, 2007 05:33 AM

sorry phill but this tab is not right atall. i mean im sure u r a good guitarist but this tab is shocking. have a look at mine when im finished doing it. for a start its in c tuning but u can play it in drop d if u want. the solo sounds like anything can happens solo and the verse and the chorus are wrong. wot i suggest u do is buy the album with the video of labyrinth on it if u havent already got it and play along with my version. i dont mean to be big headed or up my own arse but i do know that my tab is worth having a look at. sorry if i have slagged ur tab off. feel free to me an arse hole any time u want.

0 reply
BiggerThanJesus 52 Aug 27, 2007 05:35 AM

sorry that last bit sounds disturbing ! wot i ment to say was u can call me an arse hole or slag my tabs off any time u want thx

0 reply
ChaosBreedsLife 30 Feb 02, 2008 02:34 AM

The beginning and end is wrong.....


Hers check this out....sounds much
better:

--------------------------------------------------
--------------------------------------------------
-----
--7------------------------------------------
---0---x--8-8--3-3-3--5---3-5-3--0----------------
---0---5--8-8--3-3-3-
-5---3-5-3--0----------------
---0------8-8--3-3-3--5---3-5-3--0----------------

guest
You may want to rate the tab now too:
select rating
Wanna post a correction for this tab? Suggest correction