Oops, an error
Loading. Please wait.

Meltdown Tab

version 1
version 1

Whole song

Interactive

5,171 views 1 this week
3 commentsread comments
1 2 3 4 5
1 last vote to show rating
add to favorites
launch autoscroll
font size
0
reset
how to read this tab
guitar tuner
Autoscroll
slow
fast
+/-
esc
set tempo
stop
Help us to improve Ultimate-Guitar.com Take our survey!
×
Author
Difficulty
Tuning
novice
C G C F A D
                                         Band: Enter Shikari
                                            Song: Meltdown
                                Album: A Flash Flood Of Colour (2012)
                                            Tuning: Drop C

Intro x1
D|----------|
A|----------|
F|----------|
C|-0~-------|
G|-0~-------|
C|-0~-------|

Intro Part 2 x1
D|----------------------------------------------------------------------|
A|----------------------------------------------------------------------|
F|----------------------------------------------------------------------|
C|----------------------------------------------------------------------|
G|----------------------------------------------------------------------|
C|-1212121212121212101010101010101088888888222222223333333355555555-----|

Breakdown x8
D|----------------------------------------------------------------------|
A|----------------------------------------------------------------------|
F|----------------------------------------------------------------------|
C|----------------------------------------------------------------------|
G|-0--0--000--000~0-----------------------------------------------------|
C|-0--0--000--000~0-----------------------------------------------------|


Pre-Chorus x4
D|--------------------------------------------------------------------|
A|--------------------------------------------------------------------|
F|--------------------------------------------------------------------|
C|--------------------------------------------------------------------|
G|-0-0-000-----------00-8-8-888-3-33-xx0------------------------------|
C|-0-0-000/12-1212-1200-8-8-888-3-33-xx0------------------------------|
PM                                   ...

Pre-Chorus Cont. x1
D|------------------------------------------------------|
A|------------------------------------------------------|
F|------------------------------------------------------|
C|------------------------------------------------------|
G|------------------------------------------------------|
C|-555555557777777788888888111111111111-----------------|


Chorus x8
D|-------------------------------------------|
A|-------------------------------------------|
F|-7777777777--------------------------------|
C|-xxxxxxxxxx--------------------------------|
G|-5555555555--------------------------------|
C|-------------------------------------------|

Intro Part 2 x1
Breakdown x8
Pre-Chorus x4
Pre-Chorus Cont. x1
Chorus x8
Pre-Chorus x2

Outro x2
D|--------------------------------------------------------------|
A|--------------------------------------------------------------|
F|--------------------------------------------------------------|
C|--------------------------------------------------------------|
G|--------------------------------------------------------------|
C|-0~-~-~-~/12-12120~-~-8~-~-3~---------------------------------|

Enjoy + Rate! =D
Suggest correction
Give kudos to tab author, rate the tab!
1 2 3 4 5
comments
print report bad tab
3 comments total.
0 reply
Grave Robber 553 Jan 18, 2012 02:36 PM

oops, Should have mentioned that 1111 are 11's and not 1's

0 reply
ross123 138 Jan 18, 2012 02:55 PM

think the prechorus should start like


G-0-0-000-----------55
C-0-0-000/12-1212-1255

Also this riff plays at certain points during the pre chorus

listen for timing

D|-----------------------------|
A|-----------------------------|
F|-9h10p9h10p9h10p9h10---------|
C|-----------------------------|
G|-----------------------------|
C|-----------------------------|

and not sure but think chorus is

D|--------------|
A|--------------|
F|----5--3------|
C|-0--5--3--3---|
G|-0--3--1--3---|
C|-0--------3---|

0 reply
Sam Rulez D00d 928 Jan 27, 2012 12:03 PM

@ross123, that riff is synth, not guitar. and where it says slide from 0 to 12 in the prechorus - he actually uses a pedal called digitech whammy which he uses to bend the note up an octave. but if you don't have the pedal, sliding up is probably the way to go

guest
You may want to rate the tab now too:
select rating
Wanna post a correction for this tab? Suggest correction