Oops, an error
Loading. Please wait.

No Sleep Tonight Bass Tab

version 1
version 1

Whole song

Interactive

7,883 views 6 this week
2 commentsread comments
1 2 3 4 5
please rate
add to favorites
launch autoscroll
font size
0
reset
guitar tuner
Tab Pro tools
  • play this tab
  • loop segment
  • change instrument
  • show fretboard
  • metronome
×
Best way to learn
"No Sleep Tonight"
Autoscroll
slow
fast
+/-
esc
set tempo
stop
Contributor
Difficulty
Tuning
intermediate
C G C F A D
----------------------------------------------------------------------------
			     No Sleep Tonight - Enter Shikari
----------------------------------------------------------------------------

Tabbed By : Sid
e-mail: Sidtheboon@hotmail.com

Tuning:CGCF

I Figuired this out from the bass backing track which you could download if you wanted
enter enter shikari's No Sleep Tonight Remix compertion (I'm a Bad Speller i know :L).
i figuired it out by ear i think its about 90% accurate Email me with comments or 
:) Enjoy!

Intro:No Bass

Verse:
F|--------|x4
C|--------|
G|--------|
C|-2-2p0--|

F|---------------------------------------------|x1
C|---------------------------------------------|
G|--3-3-3-3--0-0-0-0--3-3-3-3------------------|
C|-----------------------------4-4-4-7-7-------|

Do this verse twice tho there might be more 2 2p0 than x4

Chorus:
F|---------------------------|x3
C|---------------------------|
G|---------------------------|
C|--5-5-5-5-5-5-2-2-2-4-4-4--|

only do this on the fourth time of the first chorus
F|--------------------------------------|
C|--------------------------------------|
G|--------------------0-0-0-0-0-2h5p2---|
C|--5-5-5-5-5-5-2-2-2-------------------|

Then do the first bit of the verse 12x i think then 1x of the last bit of the verse

Chorus x4

Bridge (don't know the exact number of notes this is as close as i got)
F|--------------------------------------------------|
C|--------------------------------------------------|
G|--------------------------------------------------|
C|--10-10-10-10-10-10-10-10--9-9-9-9h12-12-12-12----|

F|-------------------------------------------------------------------------|
C|-------------------------------------------------------------------------|
G|-------------------------------------------------------------------------|
C|--10-10-10-10-10-10-10-10-9-9-9-9h12-12-12-10-10-10-13-13-13-13-13-13----|

F|-------------------------------------------------------------|
C|-------------------------------------------------------------|
G|------------------------------------------0-0-0-0-0-3-3-3----|
C|--10-10-10-10-2-2-2-2-10-10-10-10-3-3-3-3--------------------|

verse untill chorus
chorus x4

Post-chorus
F|--------------------------------------------------|x4-6 :L i can't remember
C|--------------------------------------------------|
G|--------------------------------------------------|
C|--10-10-10-10-10-10-10-10--9-9-9-9h12-12-12-12----|

F|---------------------------|x4
C|---------------------------|
G|---------------------------|
C|--8-8-8-8-8-8-5-5-5-7-7-7--|

F|-------------------------------------------------------|x4
C|-------------------------------------------------------|
G|-------------------------------------------------------|
C|--13-13-13-13-13-13-13-13-8-8-8-8-8-8-3-3-3-3-3-3------|

Done :)
send correction and comment to my email :)

| /  slide up
| \  slide down
| h  hammer-on
| p  pull-off
| ~  vibrato
| +  harmonic
| x  Mute note
===========================================================================
comments
We did not receive enough feedback on this tab! Please rate:
print report bad tab
1 2 3 4 5
2 comments total.
0 reply
TommyGun91 wrote on October 15 2009, 10:53 am

The post chorus is 4 times :)

Perfect tab
5 stars!

0 reply
Sidtheboon wrote on December 18 2009, 01:45 pm

Thank you :)

I want to post or [tab]
guest
You may want to rate the tab now too:
select rating
Please do not post tabs as comments. Select "correction" instead!