Oops, an error
Loading. Please wait.

No Sleep Tonight Bass Tab

version 2
version 2

Whole song

Interactive

1,291 views 1 this week
no commentswrite comment
1 2 3 4 5
please rate
add to favorites
launch autoscroll
font size
0
reset
guitar tuner
Autoscroll
slow
fast
+/-
esc
set tempo
stop
Help us to improve Ultimate-Guitar.com Take our survey!
×
Author
Yo! i like Enter chakari's new album alot. so i made the tab for one of 
there best song in the album. i also did it in normal tuning, cuz if your
like me who cant be arsed changin the tuning just for a song, then hopefully
u will like this :D comment and rate please. by AJ 

G|
D|
A|
E|

Main riff
|----------|-----------|----------|------------|
|----------|-----------|----------|------------|
|-5-5--5-3-|-5--5--5-3-|-5-5--5-3-|-5-5--5-5-3-|
|----------|-----------|----------|------------|

|-------------------------|
|-------------------------|
|-------------------------| x2
|-6-6-6-6-6-6-3-3-3-3-3-3-|

|----------|-----------|----------|------------|
|----------|-----------|----------|------------|
|-5-5--5-3-|-5--5--5-3-|-5-5--5-3-|-5-5--5-5-3-| x3
|----------|-----------|----------|------------|

|-----------------------------|
|-----------------------------|
|---------------------3-3-3-3-| x2
|-6-6-6-6-6-6-3-3-3-3---------|

Chorus
|---------------------------------------------------------|
|---------------------------------------------------------|
|-8-8-8-8-8-8-8-8-8-8-8-8-5-5-5-5-5-5-5-5-7-7-7-7-7-7-7-7-| x4
|---------------------------------------------------------|

|----------|-----------|----------|------------|
|----------|-----------|----------|------------|
|-5-5--5-3-|-5--5--5-3-|-5-5--5-3-|-5-5--5-5-3-| x4
|----------|-----------|----------|------------|

|-------------------------|
|-------------------------|
|-------------------------| x2
|-6-6-6-6-6-6-3-3-3-3-3-3-|

Chorus
|---------------------------------------------------------|
|---------------------------------------------------------|
|-8-8-8-8-8-8-8-8-8-8-8-8-5-5-5-5-5-5-5-5-7-7-7-7-7-7-7-7-| x4
|---------------------------------------------------------|

pre Chorus
|---------------------------------------------------------|
|---------------------------------------------------------|
|-----------------------------------------3-3-3-3-3-3-3-3-| x2
|-6-6-6-6-6-6-6-6-6-6-6-6-5-5-5-5-5-5-5-5-----------------|

Interlude
|-------------------------|-------------------------|
|-------------------------|-------------------------|
|-5-5-5-5-8-8-8-8-8-8-8-8-|-5-5-5-5-----------------|
|-------------------------|---------1-1-1-1-1-1-1-1-|

|-------------------------|-------------------------|-------------------|
|-------------------------|---------5-5-5-5-5-5-5-5-|-5-5-5-5-5-5-5-5-5-|
|-5-5-5-5-8-8-8-8-8-8-8-8-|-5-5-5-5-----------------|-------------------|
|-------------------------|-------------------------|-------------------|

Bridge
|----------|-----------|----------|------------|
|----------|-----------|----------|------------|
|-5-5--5-3-|-5--5--5-3-|-5-5--5-3-|-5-5--5-5-3-| x4
|----------|-----------|----------|------------|

|-------------------------|
|-------------------------|
|-------------------------| x2
|-6-6-6-6-6-6-3-3-3-3-3-3-|

Chorus
|---------------------------------------------------------|
|---------------------------------------------------------|
|-8-8-8-8-8-8-8-8-8-8-8-8-5-5-5-5-5-5-5-5-7-7-7-7-7-7-7-7-| x4
|---------------------------------------------------------|

pre chorus
|---------------------------------------------------------|
|---------------------------------------------------------|
|-----------------------------------------3-3-3-3-3-3-3-3-| x4
|-6-6-6-6-6-6-6-6-6-6-6-6-5-5-5-5-5-5-5-5-----------------|

Outro
|---------------------------------------------------------|
|---------------------------------------------------------|
|---------------------------------------------------------| x6
|-4-4-4-4-4-4-4-4-4-4-4-4-1-1-1-1-1-1-1-1-3-3-3-3-3-3-3-3-|

|---------------------------------------------------------|
|---------------------------------------------------------|
|-4-4-4-4-4-4-4-4-4-4-4-4-3-3-3-3-3-3-3-3-6-6-6-6-6-6-6-6-| x till end :D
|---------------------------------------------------------|


and thats it please rate and comment! :P AJ !
Suggest correction
Give kudos to tab author, rate the tab!
1 2 3 4 5
comments
print report bad tab
guest
You may want to rate the tab now too:
select rating
Wanna post a correction for this tab? Suggest correction